  0
SECTION
  2
HEADER
  9
$ACADVER
  1
AC1015
  9
$ACADMAINTVER
 70
    20
  9
$DWGCODEPAGE
  3
ANSI_1252
  9
$INSBASE
 10
0.0
 20
0.0
 30
0.0
  9
$EXTMIN
 10
476.6876725904607
 20
360.4916288392242
 30
0.0
  9
$EXTMAX
 10
730.1943392571274
 20
562.8816288392243
 30
0.0
  9
$LIMMIN
 10
0.0
 20
0.0
  9
$LIMMAX
 10
420.0
 20
297.0
  9
$ORTHOMODE
 70
     0
  9
$REGENMODE
 70
     1
  9
$FILLMODE
 70
     1
  9
$QTEXTMODE
 70
     0
  9
$MIRRTEXT
 70
     0
  9
$LTSCALE
 40
1.0
  9
$ATTMODE
 70
     1
  9
$TEXTSIZE
 40
2.5
  9
$TRACEWID
 40
1.0
  9
$TEXTSTYLE
  7
Standard
  9
$CLAYER
  8
0
  9
$CELTYPE
  6
ByLayer
  9
$CECOLOR
 62
   256
  9
$CELTSCALE
 40
1.0
  9
$DISPSILH
 70
     0
  9
$DIMSCALE
 40
1.0
  9
$DIMASZ
 40
2.5
  9
$DIMEXO
 40
0.625
  9
$DIMDLI
 40
3.75
  9
$DIMRND
 40
0.0
  9
$DIMDLE
 40
0.0
  9
$DIMEXE
 40
1.25
  9
$DIMTP
 40
0.0
  9
$DIMTM
 40
0.0
  9
$DIMTXT
 40
2.5
  9
$DIMCEN
 40
2.5
  9
$DIMTSZ
 40
0.0
  9
$DIMTOL
 70
     0
  9
$DIMLIM
 70
     0
  9
$DIMTIH
 70
     0
  9
$DIMTOH
 70
     0
  9
$DIMSE1
 70
     0
  9
$DIMSE2
 70
     0
  9
$DIMTAD
 70
     1
  9
$DIMZIN
 70
     8
  9
$DIMBLK
  1

  9
$DIMASO
 70
     1
  9
$DIMSHO
 70
     1
  9
$DIMPOST
  1

  9
$DIMAPOST
  1

  9
$DIMALT
 70
     0
  9
$DIMALTD
 70
     3
  9
$DIMALTF
 40
0.03937007874016
  9
$DIMLFAC
 40
1.0
  9
$DIMTOFL
 70
     1
  9
$DIMTVP
 40
0.0
  9
$DIMTIX
 70
     0
  9
$DIMSOXD
 70
     0
  9
$DIMSAH
 70
     0
  9
$DIMBLK1
  1

  9
$DIMBLK2
  1

  9
$DIMSTYLE
  2
ISO-25
  9
$DIMCLRD
 70
     0
  9
$DIMCLRE
 70
     0
  9
$DIMCLRT
 70
     0
  9
$DIMTFAC
 40
1.0
  9
$DIMGAP
 40
0.625
  9
$DIMJUST
 70
     0
  9
$DIMSD1
 70
     0
  9
$DIMSD2
 70
     0
  9
$DIMTOLJ
 70
     0
  9
$DIMTZIN
 70
     8
  9
$DIMALTZ
 70
     0
  9
$DIMALTTZ
 70
     0
  9
$DIMUPT
 70
     0
  9
$DIMDEC
 70
     2
  9
$DIMTDEC
 70
     2
  9
$DIMALTU
 70
     2
  9
$DIMALTTD
 70
     3
  9
$DIMTXSTY
  7
Standard
  9
$DIMAUNIT
 70
     0
  9
$DIMADEC
 70
     0
  9
$DIMALTRND
 40
0.0
  9
$DIMAZIN
 70
     0
  9
$DIMDSEP
 70
    44
  9
$DIMATFIT
 70
     3
  9
$DIMFRAC
 70
     0
  9
$DIMLDRBLK
  1

  9
$DIMLUNIT
 70
     2
  9
$DIMLWD
 70
    -2
  9
$DIMLWE
 70
    -2
  9
$DIMTMOVE
 70
     0
  9
$LUNITS
 70
     2
  9
$LUPREC
 70
     4
  9
$SKETCHINC
 40
1.0
  9
$FILLETRAD
 40
0.0
  9
$AUNITS
 70
     0
  9
$AUPREC
 70
     0
  9
$MENU
  1
.
  9
$ELEVATION
 40
0.0
  9
$PELEVATION
 40
0.0
  9
$THICKNESS
 40
0.0
  9
$LIMCHECK
 70
     0
  9
$CHAMFERA
 40
0.0
  9
$CHAMFERB
 40
0.0
  9
$CHAMFERC
 40
0.0
  9
$CHAMFERD
 40
0.0
  9
$SKPOLY
 70
     0
  9
$TDCREATE
 40
2453732.548104016
  9
$TDUCREATE
 40
2453732.464770683
  9
$TDUPDATE
 40
2453823.636002963
  9
$TDUUPDATE
 40
2453823.552669629
  9
$TDINDWG
 40
0.0043945370
  9
$TDUSRTIMER
 40
0.0043941782
  9
$USRTIMER
 70
     1
  9
$ANGBASE
 50
0.0
  9
$ANGDIR
 70
     0
  9
$PDMODE
 70
     0
  9
$PDSIZE
 40
0.0
  9
$PLINEWID
 40
0.0
  9
$SPLFRAME
 70
     0
  9
$SPLINETYPE
 70
     6
  9
$SPLINESEGS
 70
     8
  9
$HANDSEED
  5
75E
  9
$SURFTAB1
 70
     6
  9
$SURFTAB2
 70
     6
  9
$SURFTYPE
 70
     6
  9
$SURFU
 70
     6
  9
$SURFV
 70
     6
  9
$UCSBASE
  2

  9
$UCSNAME
  2

  9
$UCSORG
 10
0.0
 20
0.0
 30
0.0
  9
$UCSXDIR
 10
1.0
 20
0.0
 30
0.0
  9
$UCSYDIR
 10
0.0
 20
1.0
 30
0.0
  9
$UCSORTHOREF
  2

  9
$UCSORTHOVIEW
 70
     0
  9
$UCSORGTOP
 10
0.0
 20
0.0
 30
0.0
  9
$UCSORGBOTTOM
 10
0.0
 20
0.0
 30
0.0
  9
$UCSORGLEFT
 10
0.0
 20
0.0
 30
0.0
  9
$UCSORGRIGHT
 10
0.0
 20
0.0
 30
0.0
  9
$UCSORGFRONT
 10
0.0
 20
0.0
 30
0.0
  9
$UCSORGBACK
 10
0.0
 20
0.0
 30
0.0
  9
$PUCSBASE
  2

  9
$PUCSNAME
  2

  9
$PUCSORG
 10
0.0
 20
0.0
 30
0.0
  9
$PUCSXDIR
 10
1.0
 20
0.0
 30
0.0
  9
$PUCSYDIR
 10
0.0
 20
1.0
 30
0.0
  9
$PUCSORTHOREF
  2

  9
$PUCSORTHOVIEW
 70
     0
  9
$PUCSORGTOP
 10
0.0
 20
0.0
 30
0.0
  9
$PUCSORGBOTTOM
 10
0.0
 20
0.0
 30
0.0
  9
$PUCSORGLEFT
 10
0.0
 20
0.0
 30
0.0
  9
$PUCSORGRIGHT
 10
0.0
 20
0.0
 30
0.0
  9
$PUCSORGFRONT
 10
0.0
 20
0.0
 30
0.0
  9
$PUCSORGBACK
 10
0.0
 20
0.0
 30
0.0
  9
$USERI1
 70
     0
  9
$USERI2
 70
     0
  9
$USERI3
 70
     0
  9
$USERI4
 70
     0
  9
$USERI5
 70
     0
  9
$USERR1
 40
0.0
  9
$USERR2
 40
0.0
  9
$USERR3
 40
0.0
  9
$USERR4
 40
0.0
  9
$USERR5
 40
0.0
  9
$WORLDVIEW
 70
     1
  9
$SHADEDGE
 70
     3
  9
$SHADEDIF
 70
    70
  9
$TILEMODE
 70
     1
  9
$MAXACTVP
 70
    64
  9
$PINSBASE
 10
0.0
 20
0.0
 30
0.0
  9
$PLIMCHECK
 70
     0
  9
$PEXTMIN
 10
0.0
 20
0.0
 30
0.0
  9
$PEXTMAX
 10
0.0
 20
0.0
 30
0.0
  9
$PLIMMIN
 10
0.0
 20
0.0
  9
$PLIMMAX
 10
12.0
 20
9.0
  9
$UNITMODE
 70
     0
  9
$VISRETAIN
 70
     1
  9
$PLINEGEN
 70
     0
  9
$PSLTSCALE
 70
     1
  9
$TREEDEPTH
 70
  3020
  9
$CMLSTYLE
  2
Standard
  9
$CMLJUST
 70
     0
  9
$CMLSCALE
 40
20.0
  9
$PROXYGRAPHICS
 70
     1
  9
$MEASUREMENT
 70
     1
  9
$CELWEIGHT
370
    -1
  9
$ENDCAPS
280
     0
  9
$JOINSTYLE
280
     0
  9
$LWDISPLAY
290
     0
  9
$INSUNITS
 70
     4
  9
$HYPERLINKBASE
  1

  9
$STYLESHEET
  1

  9
$XEDIT
290
     1
  9
$CEPSNTYPE
380
     0
  9
$PSTYLEMODE
290
     1
  9
$FINGERPRINTGUID
  2
{FDEAD578-A652-11D2-9A35-0060089B3A3F}
  9
$VERSIONGUID
  2
{A4CD0D93-1AB6-4D96-98E9-26F66E0C9FE6}
  9
$EXTNAMES
290
     1
  9
$PSVPSCALE
 40
0.0
  9
$OLESTARTUP
290
     0
  0
ENDSEC
  0
SECTION
  2
CLASSES
  0
CLASS
  1
ACDBDICTIONARYWDFLT
  2
AcDbDictionaryWithDefault
  3
ObjectDBX Classes
 90
        0
280
     0
281
     0
  0
CLASS
  1
ACDBPLACEHOLDER
  2
AcDbPlaceHolder
  3
ObjectDBX Classes
 90
        0
280
     0
281
     0
  0
CLASS
  1
LAYOUT
  2
AcDbLayout
  3
ObjectDBX Classes
 90
        0
280
     0
281
     0
  0
CLASS
  1
DICTIONARYVAR
  2
AcDbDictionaryVar
  3
ObjectDBX Classes
 90
        0
280
     0
281
     0
  0
CLASS
  1
SORTENTSTABLE
  2
AcDbSortentsTable
  3
ObjectDBX Classes
 90
        0
280
     0
281
     0
  0
ENDSEC
  0
SECTION
  2
TABLES
  0
TABLE
  2
VPORT
  5
8
330
0
100
AcDbSymbolTable
 70
     2
  0
VPORT
  5
756
330
8
100
AcDbSymbolTableRecord
100
AcDbViewportTableRecord
  2
*Active
 70
     0
 10
0.0
 20
0.0
 11
1.0
 21
1.0
 12
592.7556336154116
 22
467.8757029895399
 13
0.0
 23
0.0
 14
10.0
 24
10.0
 15
10.0
 25
10.0
 16
0.0
 26
0.0
 36
1.0
 17
0.0
 27
0.0
 37
0.0
 40
261.0759060337809
 41
1.532401524777636
 42
50.0
 43
0.0
 44
0.0
 50
0.0
 51
0.0
 71
     0
 72
  1000
 73
     1
 74
     3
 75
     0
 76
     0
 77
     0
 78
     0
281
     0
 65
     1
110
0.0
120
0.0
130
0.0
111
1.0
121
0.0
131
0.0
112
0.0
122
1.0
132
0.0
 79
     0
146
0.0
  0
ENDTAB
  0
TABLE
  2
LTYPE
  5
5
330
0
100
AcDbSymbolTable
 70
     1
  0
LTYPE
  5
14
330
5
100
AcDbSymbolTableRecord
100
AcDbLinetypeTableRecord
  2
ByBlock
 70
     0
  3

 72
    65
 73
     0
 40
0.0
  0
LTYPE
  5
15
330
5
100
AcDbSymbolTableRecord
100
AcDbLinetypeTableRecord
  2
ByLayer
 70
     0
  3

 72
    65
 73
     0
 40
0.0
  0
LTYPE
  5
16
330
5
100
AcDbSymbolTableRecord
100
AcDbLinetypeTableRecord
  2
Continuous
 70
     0
  3
Solid line
 72
    65
 73
     0
 40
0.0
  0
ENDTAB
  0
TABLE
  2
LAYER
  5
2
330
0
100
AcDbSymbolTable
 70
     2
  0
LAYER
  5
10
330
2
100
AcDbSymbolTableRecord
100
AcDbLayerTableRecord
  2
0
 70
     0
 62
     7
  6
Continuous
370
    -3
390
F
  0
LAYER
  5
85
330
2
100
AcDbSymbolTableRecord
100
AcDbLayerTableRecord
  2
sezione
 70
     0
 62
     7
  6
Continuous
370
    -3
390
F
1001
AcAecLayerStandard
1000

1000

  0
ENDTAB
  0
TABLE
  2
STYLE
  5
3
330
0
100
AcDbSymbolTable
 70
     2
  0
STYLE
  5
11
330
3
100
AcDbSymbolTableRecord
100
AcDbTextStyleTableRecord
  2
Standard
 70
     0
 40
0.0
 41
1.0
 50
0.0
 71
     0
 42
2.5
  3
txt
  4

  0
STYLE
  5
86
330
3
100
AcDbSymbolTableRecord
100
AcDbTextStyleTableRecord
  2
Geneva
 70
     0
 40
0.0
 41
1.0
 50
0.0
 71
     0
 42
0.0
  3

  4

1001
ACAD
1000
Geneva
1071
        0
  0
ENDTAB
  0
TABLE
  2
VIEW
  5
6
330
0
100
AcDbSymbolTable
 70
     0
  0
ENDTAB
  0
TABLE
  2
UCS
  5
7
330
0
100
AcDbSymbolTable
 70
     0
  0
ENDTAB
  0
TABLE
  2
APPID
  5
9
330
0
100
AcDbSymbolTable
 70
     4
  0
APPID
  5
12
330
9
100
AcDbSymbolTableRecord
100
AcDbRegAppTableRecord
  2
ACAD
 70
     0
  0
APPID
  5
88
330
9
100
AcDbSymbolTableRecord
100
AcDbRegAppTableRecord
  2
ADE
 70
     0
  0
APPID
  5
89
330
9
100
AcDbSymbolTableRecord
100
AcDbRegAppTableRecord
  2
AcAecLayerStandard
 70
     0
  0
APPID
  5
73E
330
9
100
AcDbSymbolTableRecord
100
AcDbRegAppTableRecord
  2
DCO15
 70
     0
  0
ENDTAB
  0
TABLE
  2
DIMSTYLE
  5
A
330
0
100
AcDbSymbolTable
 70
     2
100
AcDbDimStyleTable
 71
     0
  0
DIMSTYLE
105
27
330
A
100
AcDbSymbolTableRecord
100
AcDbDimStyleTableRecord
  2
ISO-25
 70
     0
 41
2.5
 42
0.625
 43
3.75
 44
1.25
 73
     0
 74
     0
 77
     1
 78
     8
140
2.5
141
2.5
143
0.03937007874016
147
0.625
171
     3
172
     1
271
     2
272
     2
274
     3
278
    44
283
     0
284
     8
340
11
  0
DIMSTYLE
105
87
330
A
100
AcDbSymbolTableRecord
100
AcDbDimStyleTableRecord
  2
Standard
 70
     0
 41
6.0
 42
0.0
 44
0.0
 75
     1
 76
     1
140
8.0
147
4.0
289
     0
340
11
342
81
  0
ENDTAB
  0
TABLE
  2
BLOCK_RECORD
  5
1
330
0
100
AcDbSymbolTable
 70
     3
  0
BLOCK_RECORD
  5
1F
330
1
100
AcDbSymbolTableRecord
100
AcDbBlockTableRecord
  2
*Model_Space
340
22
  0
BLOCK_RECORD
  5
50
330
1
100
AcDbSymbolTableRecord
100
AcDbBlockTableRecord
  2
*Paper_Space
340
51
  0
BLOCK_RECORD
  5
55
330
1
100
AcDbSymbolTableRecord
100
AcDbBlockTableRecord
  2
*Paper_Space0
340
56
  0
BLOCK_RECORD
  5
81
330
1
100
AcDbSymbolTableRecord
100
AcDbBlockTableRecord
  2
_ArchTick
340
0
  0
BLOCK_RECORD
  5
8A
102
{ACAD_XDICTIONARY
360
3E1
102
}
330
1
100
AcDbSymbolTableRecord
100
AcDbBlockTableRecord
  2
A$C098A4A63
340
0
102
{BLKREFS
331
3E5
102
}
  0
ENDTAB
  0
ENDSEC
  0
SECTION
  2
BLOCKS
  0
BLOCK
  5
20
330
1F
100
AcDbEntity
  8
0
100
AcDbBlockBegin
  2
*Model_Space
 70
     0
 10
0.0
 20
0.0
 30
0.0
  3
*Model_Space
  1

  0
ENDBLK
  5
21
330
1F
100
AcDbEntity
  8
0
100
AcDbBlockEnd
  0
BLOCK
  5
52
330
50
100
AcDbEntity
 67
     1
  8
0
100
AcDbBlockBegin
  2
*Paper_Space
 70
     0
 10
0.0
 20
0.0
 30
0.0
  3
*Paper_Space
  1

  0
ENDBLK
  5
53
330
50
100
AcDbEntity
 67
     1
  8
0
100
AcDbBlockEnd
  0
BLOCK
  5
57
330
55
100
AcDbEntity
 67
     1
  8
0
100
AcDbBlockBegin
  2
*Paper_Space0
 70
     0
 10
0.0
 20
0.0
 30
0.0
  3
*Paper_Space0
  1

  0
ENDBLK
  5
58
330
55
100
AcDbEntity
 67
     1
  8
0
100
AcDbBlockEnd
  0
BLOCK
  5
82
330
81
100
AcDbEntity
  8
0
370
     0
100
AcDbBlockBegin
  2
_ArchTick
 70
     0
 10
0.0
 20
0.0
 30
0.0
  3
_ArchTick
  1

  0
LWPOLYLINE
  5
83
330
81
100
AcDbEntity
  8
0
  6
ByBlock
 62
     0
370
     0
100
AcDbPolyline
 90
        2
 70
     0
 43
0.15
 10
-0.5
 20
-0.5
 10
0.5
 20
0.5
  0
ENDBLK
  5
84
330
81
100
AcDbEntity
  8
0
370
     0
100
AcDbBlockEnd
  0
BLOCK
  5
3E3
330
8A
100
AcDbEntity
  8
0
100
AcDbBlockBegin
  2
A$C098A4A63
 70
     0
 10
0.0
 20
0.0
 30
0.0
  3
A$C098A4A63
  1

  0
MTEXT
  5
8B
330
8A
100
AcDbEntity
  8
0
 62
     7
100
AcDbMText
 10
215.3400052758955
 20
141.7499963948861
 30
0.0
 40
3.5
 41
0.0
 71
     1
 72
     1
  1
21 Dicembre
  7
Geneva
 73
     1
 44
1.0
1001
ACAD
1000
MTEXTBEGIN
1070
    73
1070
     1
1070
    44
1040
1.0
1070
    74
1070
     0
1000
MTEXTEND
  0
MTEXT
  5
8C
330
8A
100
AcDbEntity
  8
0
 62
     7
100
AcDbMText
 10
204.8400052758955
 20
141.7499963948861
 30
0.0
 40
3.5
 41
0.0
 71
     1
 72
     1
  1
G
  7
Geneva
 73
     1
 44
1.0
1001
ACAD
1000
MTEXTBEGIN
1070
    73
1070
     1
1070
    44
1040
1.0
1070
    74
1070
     0
1000
MTEXTEND
  0
MTEXT
  5
8D
330
8A
100
AcDbEntity
  8
0
 62
     7
100
AcDbMText
 10
215.3400052758955
 20
147.699996394886
 30
0.0
 40
3.5
 41
0.0
 71
     1
 72
     1
  1
21 Nov - Gen
  7
Geneva
 73
     1
 44
1.0
1001
ACAD
1000
MTEXTBEGIN
1070
    73
1070
     1
1070
    44
1040
1.0
1070
    74
1070
     0
1000
MTEXTEND
  0
MTEXT
  5
8E
330
8A
100
AcDbEntity
  8
0
 62
     7
100
AcDbMText
 10
204.8400052758955
 20
147.699996394886
 30
0.0
 40
3.5
 41
0.0
 71
     1
 72
     1
  1
F
  7
Geneva
 73
     1
 44
1.0
1001
ACAD
1000
MTEXTBEGIN
1070
    73
1070
     1
1070
    44
1040
1.0
1070
    74
1070
     0
1000
MTEXTEND
  0
MTEXT
  5
8F
330
8A
100
AcDbEntity
  8
0
 62
     7
100
AcDbMText
 10
215.3400052758955
 20
153.6499963948861
 30
0.0
 40
3.5
 41
0.0
 71
     1
 72
     1
  1
21 Ott - Feb
  7
Geneva
 73
     1
 44
1.0
1001
ACAD
1000
MTEXTBEGIN
1070
    73
1070
     1
1070
    44
1040
1.0
1070
    74
1070
     0
1000
MTEXTEND
  0
MTEXT
  5
90
330
8A
100
AcDbEntity
  8
0
 62
     7
100
AcDbMText
 10
204.8400052758955
 20
153.6499963948861
 30
0.0
 40
3.5
 41
0.0
 71
     1
 72
     1
  1
E
  7
Geneva
 73
     1
 44
1.0
1001
ACAD
1000
MTEXTBEGIN
1070
    73
1070
     1
1070
    44
1040
1.0
1070
    74
1070
     0
1000
MTEXTEND
  0
MTEXT
  5
91
330
8A
100
AcDbEntity
  8
0
 62
     7
100
AcDbMText
 10
215.3400052758955
 20
159.5999963948861
 30
0.0
 40
3.5
 41
0.0
 71
     1
 72
     1
  1
21 Set - Mar
  7
Geneva
 73
     1
 44
1.0
1001
ACAD
1000
MTEXTBEGIN
1070
    73
1070
     1
1070
    44
1040
1.0
1070
    74
1070
     0
1000
MTEXTEND
  0
MTEXT
  5
92
330
8A
100
AcDbEntity
  8
0
 62
     7
100
AcDbMText
 10
204.8400052758955
 20
159.5999963948861
 30
0.0
 40
3.5
 41
0.0
 71
     1
 72
     1
  1
D
  7
Geneva
 73
     1
 44
1.0
1001
ACAD
1000
MTEXTBEGIN
1070
    73
1070
     1
1070
    44
1040
1.0
1070
    74
1070
     0
1000
MTEXTEND
  0
MTEXT
  5
93
330
8A
100
AcDbEntity
  8
0
 62
     7
100
AcDbMText
 10
215.3400052758955
 20
165.5499963948861
 30
0.0
 40
3.5
 41
0.0
 71
     1
 72
     1
  1
21 Ago - Apr
  7
Geneva
 73
     1
 44
1.0
1001
ACAD
1000
MTEXTBEGIN
1070
    73
1070
     1
1070
    44
1040
1.0
1070
    74
1070
     0
1000
MTEXTEND
  0
MTEXT
  5
94
330
8A
100
AcDbEntity
  8
0
 62
     7
100
AcDbMText
 10
204.8400052758955
 20
165.5499963948861
 30
0.0
 40
3.5
 41
0.0
 71
     1
 72
     1
  1
C
  7
Geneva
 73
     1
 44
1.0
1001
ACAD
1000
MTEXTBEGIN
1070
    73
1070
     1
1070
    44
1040
1.0
1070
    74
1070
     0
1000
MTEXTEND
  0
MTEXT
  5
95
330
8A
100
AcDbEntity
  8
0
 62
     7
100
AcDbMText
 10
215.3400052758955
 20
171.499996394886
 30
0.0
 40
3.5
 41
0.0
 71
     1
 72
     1
  1
21 Lug - Mag
  7
Geneva
 73
     1
 44
1.0
1001
ACAD
1000
MTEXTBEGIN
1070
    73
1070
     1
1070
    44
1040
1.0
1070
    74
1070
     0
1000
MTEXTEND
  0
MTEXT
  5
96
330
8A
100
AcDbEntity
  8
0
 62
     7
100
AcDbMText
 10
204.8400052758955
 20
171.499996394886
 30
0.0
 40
3.5
 41
0.0
 71
     1
 72
     1
  1
B
  7
Geneva
 73
     1
 44
1.0
1001
ACAD
1000
MTEXTBEGIN
1070
    73
1070
     1
1070
    44
1040
1.0
1070
    74
1070
     0
1000
MTEXTEND
  0
MTEXT
  5
97
330
8A
100
AcDbEntity
  8
0
 62
     7
100
AcDbMText
 10
215.3400052758955
 20
177.449996394886
 30
0.0
 40
3.5
 41
0.0
 71
     1
 72
     1
  1
21 Giugno
  7
Geneva
 73
     1
 44
1.0
1001
ACAD
1000
MTEXTBEGIN
1070
    73
1070
     1
1070
    44
1040
1.0
1070
    74
1070
     0
1000
MTEXTEND
  0
MTEXT
  5
98
330
8A
100
AcDbEntity
  8
0
 62
     7
100
AcDbMText
 10
204.8400052758955
 20
177.449996394886
 30
0.0
 40
3.5
 41
0.0
 71
     1
 72
     1
  1
A
  7
Geneva
 73
     1
 44
1.0
1001
ACAD
1000
MTEXTBEGIN
1070
    73
1070
     1
1070
    44
1040
1.0
1070
    74
1070
     0
1000
MTEXTEND
  0
MTEXT
  5
99
330
8A
100
AcDbEntity
  8
0
 62
     2
100
AcDbMText
 10
27.15626861376654
 20
152.7528607457499
 30
0.0
 40
3.799999999999998
 41
0.0
 71
     1
 72
     1
  1
19
  7
Geneva
 73
     1
 44
1.0
1001
ACAD
1000
MTEXTBEGIN
1070
    73
1070
     1
1070
    44
1040
1.0
1070
    74
1070
     0
1000
MTEXTEND
  0
MTEXT
  5
9A
330
8A
100
AcDbEntity
  8
0
 62
     2
100
AcDbMText
 10
29.91021723897069
 20
136.350920162233
 30
0.0
 40
3.799999999999998
 41
0.0
 71
     1
 72
     1
  1
18
  7
Geneva
 73
     1
 44
1.0
1001
ACAD
1000
MTEXTBEGIN
1070
    73
1070
     1
1070
    44
1040
1.0
1070
    74
1070
     0
1000
MTEXTEND
  0
MTEXT
  5
9B
330
8A
100
AcDbEntity
  8
0
 62
     2
100
AcDbMText
 10
36.67246267902795
 20
121.3469766912724
 30
0.0
 40
3.799999999999998
 41
0.0
 71
     1
 72
     1
  1
17
  7
Geneva
 73
     1
 44
1.0
1001
ACAD
1000
MTEXTBEGIN
1070
    73
1070
     1
1070
    44
1040
1.0
1070
    74
1070
     0
1000
MTEXTEND
  0
MTEXT
  5
9C
330
8A
100
AcDbEntity
  8
0
 62
     2
100
AcDbMText
 10
46.08940757667517
 20
109.9728023254882
 30
0.0
 40
3.799999999999998
 41
0.0
 71
     1
 72
     1
  1
16
  7
Geneva
 73
     1
 44
1.0
1001
ACAD
1000
MTEXTBEGIN
1070
    73
1070
     1
1070
    44
1040
1.0
1070
    74
1070
     0
1000
MTEXTEND
  0
MTEXT
  5
9D
330
8A
100
AcDbEntity
  8
0
 62
     2
100
AcDbMText
 10
62.91075989711315
 20
98.83437229712356
 30
0.0
 40
3.799999999999998
 41
0.0
 71
     1
 72
     1
  1
15
  7
Geneva
 73
     1
 44
1.0
1001
ACAD
1000
MTEXTBEGIN
1070
    73
1070
     1
1070
    44
1040
1.0
1070
    74
1070
     0
1000
MTEXTEND
  0
MTEXT
  5
9E
330
8A
100
AcDbEntity
  8
0
 62
     2
100
AcDbMText
 10
72.34342239057831
 20
95.10201661153386
 30
0.0
 40
3.799999999999998
 41
0.0
 71
     1
 72
     1
  1
14
  7
Geneva
 73
     1
 44
1.0
1001
ACAD
1000
MTEXTBEGIN
1070
    73
1070
     1
1070
    44
1040
1.0
1070
    74
1070
     0
1000
MTEXTEND
  0
MTEXT
  5
9F
330
8A
100
AcDbEntity
  8
0
 62
     2
100
AcDbMText
 10
82.88631141780205
 20
90.53170895826907
 30
0.0
 40
3.799999999999998
 41
0.0
 71
     1
 72
     1
  1
13
  7
Geneva
 73
     1
 44
1.0
1001
ACAD
1000
MTEXTBEGIN
1070
    73
1070
     1
1070
    44
1040
1.0
1070
    74
1070
     0
1000
MTEXTEND
  0
MTEXT
  5
A0
330
8A
100
AcDbEntity
  8
0
 62
     2
100
AcDbMText
 10
99.50650464770133
 20
90.44567359889095
 30
0.0
 40
3.799999999999998
 41
0.0
 71
     1
 72
     1
  1
12
  7
Geneva
 73
     1
 44
1.0
1001
ACAD
1000
MTEXTBEGIN
1070
    73
1070
     1
1070
    44
1040
1.0
1070
    74
1070
     0
1000
MTEXTEND
  0
MTEXT
  5
A1
330
8A
100
AcDbEntity
  8
0
 62
     2
100
AcDbMText
 10
113.9884120541055
 20
90.57655166439829
 30
0.0
 40
3.799999999999998
 41
0.0
 71
     1
 72
     1
  1
11
  7
Geneva
 73
     1
 44
1.0
1001
ACAD
1000
MTEXTBEGIN
1070
    73
1070
     1
1070
    44
1040
1.0
1070
    74
1070
     0
1000
MTEXTEND
  0
MTEXT
  5
A2
330
8A
100
AcDbEntity
  8
0
 62
     2
100
AcDbMText
 10
126.5117536549068
 20
94.36298492956463
 30
0.0
 40
3.799999999999998
 41
0.0
 71
     1
 72
     1
  1
10
  7
Geneva
 73
     1
 44
1.0
1001
ACAD
1000
MTEXTBEGIN
1070
    73
1070
     1
1070
    44
1040
1.0
1070
    74
1070
     0
1000
MTEXTEND
  0
MTEXT
  5
A3
330
8A
100
AcDbEntity
  8
0
 62
     2
100
AcDbMText
 10
137.7349967322934
 20
98.30199091483109
 30
0.0
 40
3.799999999999998
 41
0.0
 71
     1
 72
     1
  1
9
  7
Geneva
 73
     1
 44
1.0
1001
ACAD
1000
MTEXTBEGIN
1070
    73
1070
     1
1070
    44
1040
1.0
1070
    74
1070
     0
1000
MTEXTEND
  0
MTEXT
  5
A4
330
8A
100
AcDbEntity
  8
0
 62
     2
100
AcDbMText
 10
149.1799905316933
 20
109.8221129191769
 30
0.0
 40
3.799999999999998
 41
0.0
 71
     1
 72
     1
  1
8
  7
Geneva
 73
     1
 44
1.0
1001
ACAD
1000
MTEXTBEGIN
1070
    73
1070
     1
1070
    44
1040
1.0
1070
    74
1070
     0
1000
MTEXTEND
  0
MTEXT
  5
A5
330
8A
100
AcDbEntity
  8
0
 62
     2
100
AcDbMText
 10
162.5683849087031
 20
121.150068597691
 30
0.0
 40
3.799999999999998
 41
0.0
 71
     1
 72
     1
  1
7
  7
Geneva
 73
     1
 44
1.0
1001
ACAD
1000
MTEXTBEGIN
1070
    73
1070
     1
1070
    44
1040
1.0
1070
    74
1070
     0
1000
MTEXTEND
  0
MTEXT
  5
A6
330
8A
100
AcDbEntity
  8
0
 62
     2
100
AcDbMText
 10
168.3150238776958
 20
134.6824132198856
 30
0.0
 40
3.799999999999998
 41
0.0
 71
     1
 72
     1
  1
6
  7
Geneva
 73
     1
 44
1.0
1001
ACAD
1000
MTEXTBEGIN
1070
    73
1070
     1
1070
    44
1040
1.0
1070
    74
1070
     0
1000
MTEXTEND
  0
MTEXT
  5
A7
330
8A
100
AcDbEntity
  8
0
 62
     2
100
AcDbMText
 10
172.4266884774964
 20
151.9376178819367
 30
0.0
 40
3.799999999999998
 41
0.0
 71
     1
 72
     1
  1
5
  7
Geneva
 73
     1
 44
1.0
1001
ACAD
1000
MTEXTBEGIN
1070
    73
1070
     1
1070
    44
1040
1.0
1070
    74
1070
     0
1000
MTEXTEND
  0
MTEXT
  5
A8
330
8A
100
AcDbEntity
  8
0
 62
     9
100
AcDbMText
 10
20.48000527589551
 20
53.30999639488608
 30
0.0
 40
3.5
 41
0.0
 71
     1
 72
     1
  1
G
  7
Geneva
 73
     1
 44
1.0
1001
ACAD
1000
MTEXTBEGIN
1070
    73
1070
     1
1070
    44
1040
1.0
1070
    74
1070
     0
1000
MTEXTEND
  0
LINE
  5
A9
330
8A
100
AcDbEntity
  8
0
 62
     9
370
    15
100
AcDbLine
 10
27.08000527589547
 20
54.0899963948861
 30
0.0
 11
26.47000527589546
 21
54.41999639488607
 31
0.0
  0
LINE
  5
AA
330
8A
100
AcDbEntity
  8
0
 62
     9
370
    15
100
AcDbLine
 10
29.19000527589549
 20
52.99999639488607
 30
0.0
 11
27.08000527589547
 21
54.0899963948861
 31
0.0
  0
LINE
  5
AB
330
8A
100
AcDbEntity
  8
0
 62
     9
370
    15
100
AcDbLine
 10
31.32000527589549
 20
51.95999639488603
 30
0.0
 11
29.19000527589549
 21
52.99999639488607
 31
0.0
  0
CIRCLE
  5
AC
330
8A
100
AcDbEntity
  8
0
 62
     7
370
    15
100
AcDbCircle
 10
31.32000527589549
 20
51.95999639488603
 30
0.0
 40
1.0
  0
LINE
  5
AD
330
8A
100
AcDbEntity
  8
0
 62
     9
370
    15
100
AcDbLine
 10
33.45000527589548
 20
50.94999639488604
 30
0.0
 11
31.32000527589549
 21
51.95999639488603
 31
0.0
  0
LINE
  5
AE
330
8A
100
AcDbEntity
  8
0
 62
     9
370
    15
100
AcDbLine
 10
35.59000527589546
 20
49.97999639488607
 30
0.0
 11
33.45000527589548
 21
50.94999639488604
 31
0.0
  0
LINE
  5
AF
330
8A
100
AcDbEntity
  8
0
 62
     9
370
    15
100
AcDbLine
 10
37.7400052758955
 20
49.04999639488607
 30
0.0
 11
35.59000527589546
 21
49.97999639488607
 31
0.0
  0
LINE
  5
B0
330
8A
100
AcDbEntity
  8
0
 62
     9
370
    15
100
AcDbLine
 10
39.90000527589547
 20
48.1499963948861
 30
0.0
 11
37.7400052758955
 21
49.04999639488607
 31
0.0
  0
LINE
  5
B1
330
8A
100
AcDbEntity
  8
0
 62
     9
370
    15
100
AcDbLine
 10
42.06000527589549
 20
47.28999639488607
 30
0.0
 11
39.90000527589547
 21
48.1499963948861
 31
0.0
  0
LINE
  5
B2
330
8A
100
AcDbEntity
  8
0
 62
     9
370
    15
100
AcDbLine
 10
44.23000527589545
 20
46.46999639488609
 30
0.0
 11
42.06000527589549
 21
47.28999639488607
 31
0.0
  0
LINE
  5
B3
330
8A
100
AcDbEntity
  8
0
 62
     9
370
    15
100
AcDbLine
 10
46.4100052758955
 20
45.67999639488607
 30
0.0
 11
44.23000527589545
 21
46.46999639488609
 31
0.0
  0
LINE
  5
B4
330
8A
100
AcDbEntity
  8
0
 62
     9
370
    15
100
AcDbLine
 10
48.59000527589547
 20
44.92999639488608
 30
0.0
 11
46.4100052758955
 21
45.67999639488607
 31
0.0
  0
CIRCLE
  5
B5
330
8A
100
AcDbEntity
  8
0
 62
     7
370
    15
100
AcDbCircle
 10
48.59000527589547
 20
44.92999639488608
 30
0.0
 40
1.0
  0
LINE
  5
B6
330
8A
100
AcDbEntity
  8
0
 62
     9
370
    15
100
AcDbLine
 10
50.77000527589547
 20
44.20999639488605
 30
0.0
 11
48.59000527589547
 21
44.92999639488608
 31
0.0
  0
LINE
  5
B7
330
8A
100
AcDbEntity
  8
0
 62
     9
370
    15
100
AcDbLine
 10
52.96000527589547
 20
43.52999639488611
 30
0.0
 11
50.77000527589547
 21
44.20999639488605
 31
0.0
  0
LINE
  5
B8
330
8A
100
AcDbEntity
  8
0
 62
     9
370
    15
100
AcDbLine
 10
55.1600052758955
 20
42.87999639488606
 30
0.0
 11
52.96000527589547
 21
43.52999639488611
 31
0.0
  0
LINE
  5
B9
330
8A
100
AcDbEntity
  8
0
 62
     9
370
    15
100
AcDbLine
 10
57.3600052758955
 20
42.25999639488605
 30
0.0
 11
55.1600052758955
 21
42.87999639488606
 31
0.0
  0
LINE
  5
BA
330
8A
100
AcDbEntity
  8
0
 62
     9
370
    15
100
AcDbLine
 10
59.57000527589548
 20
41.66999639488607
 30
0.0
 11
57.3600052758955
 21
42.25999639488605
 31
0.0
  0
LINE
  5
BB
330
8A
100
AcDbEntity
  8
0
 62
     9
370
    15
100
AcDbLine
 10
61.77000527589547
 20
41.11999639488607
 30
0.0
 11
59.57000527589548
 21
41.66999639488607
 31
0.0
  0
LINE
  5
BC
330
8A
100
AcDbEntity
  8
0
 62
     9
370
    15
100
AcDbLine
 10
63.99000527589549
 20
40.59999639488609
 30
0.0
 11
61.77000527589547
 21
41.11999639488607
 31
0.0
  0
LINE
  5
BD
330
8A
100
AcDbEntity
  8
0
 62
     9
370
    15
100
AcDbLine
 10
66.20000527589548
 20
40.10999639488608
 30
0.0
 11
63.99000527589549
 21
40.59999639488609
 31
0.0
  0
CIRCLE
  5
BE
330
8A
100
AcDbEntity
  8
0
 62
     7
370
    15
100
AcDbCircle
 10
66.20000527589548
 20
40.10999639488608
 30
0.0
 40
1.0
  0
LINE
  5
BF
330
8A
100
AcDbEntity
  8
0
 62
     9
370
    15
100
AcDbLine
 10
68.42000527589551
 20
39.6499963948861
 30
0.0
 11
66.20000527589548
 21
40.10999639488608
 31
0.0
  0
LINE
  5
C0
330
8A
100
AcDbEntity
  8
0
 62
     9
370
    15
100
AcDbLine
 10
70.64000527589548
 20
39.2199963948861
 30
0.0
 11
68.42000527589551
 21
39.6499963948861
 31
0.0
  0
LINE
  5
C1
330
8A
100
AcDbEntity
  8
0
 62
     9
370
    15
100
AcDbLine
 10
72.87000527589547
 20
38.81999639488606
 30
0.0
 11
70.64000527589548
 21
39.2199963948861
 31
0.0
  0
LINE
  5
C2
330
8A
100
AcDbEntity
  8
0
 62
     9
370
    15
100
AcDbLine
 10
75.09000527589545
 20
38.45999639488605
 30
0.0
 11
72.87000527589547
 21
38.81999639488606
 31
0.0
  0
LINE
  5
C3
330
8A
100
AcDbEntity
  8
0
 62
     9
370
    15
100
AcDbLine
 10
77.32000527589548
 20
38.11999639488607
 30
0.0
 11
75.09000527589545
 21
38.45999639488605
 31
0.0
  0
LINE
  5
C4
330
8A
100
AcDbEntity
  8
0
 62
     9
370
    15
100
AcDbLine
 10
79.56000527589548
 20
37.80999639488607
 30
0.0
 11
77.32000527589548
 21
38.11999639488607
 31
0.0
  0
LINE
  5
C5
330
8A
100
AcDbEntity
  8
0
 62
     9
370
    15
100
AcDbLine
 10
81.79000527589549
 20
37.5299963948861
 30
0.0
 11
79.56000527589548
 21
37.80999639488607
 31
0.0
  0
LINE
  5
C6
330
8A
100
AcDbEntity
  8
0
 62
     9
370
    15
100
AcDbLine
 10
84.02000527589548
 20
37.2899963948861
 30
0.0
 11
81.79000527589549
 21
37.5299963948861
 31
0.0
  0
CIRCLE
  5
C7
330
8A
100
AcDbEntity
  8
0
 62
     7
370
    15
100
AcDbCircle
 10
84.02000527589548
 20
37.2899963948861
 30
0.0
 40
1.0
  0
LINE
  5
C8
330
8A
100
AcDbEntity
  8
0
 62
     9
370
    15
100
AcDbLine
 10
86.26000527589548
 20
37.06999639488606
 30
0.0
 11
84.02000527589548
 21
37.2899963948861
 31
0.0
  0
LINE
  5
C9
330
8A
100
AcDbEntity
  8
0
 62
     9
370
    15
100
AcDbLine
 10
88.50000527589548
 20
36.87999639488606
 30
0.0
 11
86.26000527589548
 21
37.06999639488606
 31
0.0
  0
LINE
  5
CA
330
8A
100
AcDbEntity
  8
0
 62
     9
370
    15
100
AcDbLine
 10
90.7400052758955
 20
36.7199963948861
 30
0.0
 11
88.50000527589548
 21
36.87999639488606
 31
0.0
  0
LINE
  5
CB
330
8A
100
AcDbEntity
  8
0
 62
     9
370
    15
100
AcDbLine
 10
92.98000527589548
 20
36.58999639488604
 30
0.0
 11
90.7400052758955
 21
36.7199963948861
 31
0.0
  0
LINE
  5
CC
330
8A
100
AcDbEntity
  8
0
 62
     9
370
    15
100
AcDbLine
 10
95.22000527589545
 20
36.48999639488608
 30
0.0
 11
92.98000527589548
 21
36.58999639488604
 31
0.0
  0
LINE
  5
CD
330
8A
100
AcDbEntity
  8
0
 62
     9
370
    15
100
AcDbLine
 10
97.46000527589549
 20
36.41999639488608
 30
0.0
 11
95.22000527589545
 21
36.48999639488608
 31
0.0
  0
LINE
  5
CE
330
8A
100
AcDbEntity
  8
0
 62
     9
370
    15
100
AcDbLine
 10
99.70000527589547
 20
36.36999639488607
 30
0.0
 11
97.46000527589549
 21
36.41999639488608
 31
0.0
  0
LINE
  5
CF
330
8A
100
AcDbEntity
  8
0
 62
     9
370
    15
100
AcDbLine
 10
101.9400052758955
 20
36.35999639488608
 30
0.0
 11
99.70000527589547
 21
36.36999639488607
 31
0.0
  0
CIRCLE
  5
D0
330
8A
100
AcDbEntity
  8
0
 62
     7
370
    15
100
AcDbCircle
 10
101.9400052758955
 20
36.35999639488608
 30
0.0
 40
1.0
  0
LINE
  5
D1
330
8A
100
AcDbEntity
  8
0
 62
     9
370
    15
100
AcDbLine
 10
104.1800052758955
 20
36.36999639488607
 30
0.0
 11
101.9400052758955
 21
36.35999639488608
 31
0.0
  0
LINE
  5
D2
330
8A
100
AcDbEntity
  8
0
 62
     9
370
    15
100
AcDbLine
 10
106.4200052758955
 20
36.41999639488608
 30
0.0
 11
104.1800052758955
 21
36.36999639488607
 31
0.0
  0
LINE
  5
D3
330
8A
100
AcDbEntity
  8
0
 62
     9
370
    15
100
AcDbLine
 10
108.6600052758955
 20
36.48999639488608
 30
0.0
 11
106.4200052758955
 21
36.41999639488608
 31
0.0
  0
LINE
  5
D4
330
8A
100
AcDbEntity
  8
0
 62
     9
370
    15
100
AcDbLine
 10
110.9000052758954
 20
36.58999639488604
 30
0.0
 11
108.6600052758955
 21
36.48999639488608
 31
0.0
  0
LINE
  5
D5
330
8A
100
AcDbEntity
  8
0
 62
     9
370
    15
100
AcDbLine
 10
113.1400052758954
 20
36.7199963948861
 30
0.0
 11
110.9000052758954
 21
36.58999639488604
 31
0.0
  0
LINE
  5
D6
330
8A
100
AcDbEntity
  8
0
 62
     9
370
    15
100
AcDbLine
 10
115.3800052758955
 20
36.87999639488606
 30
0.0
 11
113.1400052758954
 21
36.7199963948861
 31
0.0
  0
LINE
  5
D7
330
8A
100
AcDbEntity
  8
0
 62
     9
370
    15
100
AcDbLine
 10
117.6200052758955
 20
37.06999639488606
 30
0.0
 11
115.3800052758955
 21
36.87999639488606
 31
0.0
  0
LINE
  5
D8
330
8A
100
AcDbEntity
  8
0
 62
     9
370
    15
100
AcDbLine
 10
119.8600052758955
 20
37.2899963948861
 30
0.0
 11
117.6200052758955
 21
37.06999639488606
 31
0.0
  0
CIRCLE
  5
D9
330
8A
100
AcDbEntity
  8
0
 62
     7
370
    15
100
AcDbCircle
 10
119.8600052758955
 20
37.2899963948861
 30
0.0
 40
1.0
  0
LINE
  5
DA
330
8A
100
AcDbEntity
  8
0
 62
     9
370
    15
100
AcDbLine
 10
122.0900052758954
 20
37.5299963948861
 30
0.0
 11
119.8600052758955
 21
37.2899963948861
 31
0.0
  0
LINE
  5
DB
330
8A
100
AcDbEntity
  8
0
 62
     9
370
    15
100
AcDbLine
 10
124.3200052758955
 20
37.80999639488607
 30
0.0
 11
122.0900052758954
 21
37.5299963948861
 31
0.0
  0
LINE
  5
DC
330
8A
100
AcDbEntity
  8
0
 62
     9
370
    15
100
AcDbLine
 10
126.5600052758955
 20
38.11999639488607
 30
0.0
 11
124.3200052758955
 21
37.80999639488607
 31
0.0
  0
LINE
  5
DD
330
8A
100
AcDbEntity
  8
0
 62
     9
370
    15
100
AcDbLine
 10
128.7900052758955
 20
38.45999639488605
 30
0.0
 11
126.5600052758955
 21
38.11999639488607
 31
0.0
  0
LINE
  5
DE
330
8A
100
AcDbEntity
  8
0
 62
     9
370
    15
100
AcDbLine
 10
131.0100052758955
 20
38.81999639488606
 30
0.0
 11
128.7900052758955
 21
38.45999639488605
 31
0.0
  0
LINE
  5
DF
330
8A
100
AcDbEntity
  8
0
 62
     9
370
    15
100
AcDbLine
 10
133.2400052758955
 20
39.2199963948861
 30
0.0
 11
131.0100052758955
 21
38.81999639488606
 31
0.0
  0
LINE
  5
E0
330
8A
100
AcDbEntity
  8
0
 62
     9
370
    15
100
AcDbLine
 10
135.4600052758955
 20
39.6499963948861
 30
0.0
 11
133.2400052758955
 21
39.2199963948861
 31
0.0
  0
LINE
  5
E1
330
8A
100
AcDbEntity
  8
0
 62
     9
370
    15
100
AcDbLine
 10
137.6800052758955
 20
40.10999639488608
 30
0.0
 11
135.4600052758955
 21
39.6499963948861
 31
0.0
  0
CIRCLE
  5
E2
330
8A
100
AcDbEntity
  8
0
 62
     7
370
    15
100
AcDbCircle
 10
137.6800052758955
 20
40.10999639488608
 30
0.0
 40
1.0
  0
LINE
  5
E3
330
8A
100
AcDbEntity
  8
0
 62
     9
370
    15
100
AcDbLine
 10
139.8900052758955
 20
40.59999639488609
 30
0.0
 11
137.6800052758955
 21
40.10999639488608
 31
0.0
  0
LINE
  5
E4
330
8A
100
AcDbEntity
  8
0
 62
     9
370
    15
100
AcDbLine
 10
142.1100052758954
 20
41.11999639488607
 30
0.0
 11
139.8900052758955
 21
40.59999639488609
 31
0.0
  0
LINE
  5
E5
330
8A
100
AcDbEntity
  8
0
 62
     9
370
    15
100
AcDbLine
 10
144.3100052758955
 20
41.66999639488607
 30
0.0
 11
142.1100052758954
 21
41.11999639488607
 31
0.0
  0
LINE
  5
E6
330
8A
100
AcDbEntity
  8
0
 62
     9
370
    15
100
AcDbLine
 10
146.5200052758955
 20
42.25999639488605
 30
0.0
 11
144.3100052758955
 21
41.66999639488607
 31
0.0
  0
LINE
  5
E7
330
8A
100
AcDbEntity
  8
0
 62
     9
370
    15
100
AcDbLine
 10
148.7200052758955
 20
42.87999639488606
 30
0.0
 11
146.5200052758955
 21
42.25999639488605
 31
0.0
  0
LINE
  5
E8
330
8A
100
AcDbEntity
  8
0
 62
     9
370
    15
100
AcDbLine
 10
150.9200052758955
 20
43.52999639488611
 30
0.0
 11
148.7200052758955
 21
42.87999639488606
 31
0.0
  0
LINE
  5
E9
330
8A
100
AcDbEntity
  8
0
 62
     9
370
    15
100
AcDbLine
 10
153.1100052758955
 20
44.20999639488605
 30
0.0
 11
150.9200052758955
 21
43.52999639488611
 31
0.0
  0
LINE
  5
EA
330
8A
100
AcDbEntity
  8
0
 62
     9
370
    15
100
AcDbLine
 10
155.2900052758955
 20
44.92999639488608
 30
0.0
 11
153.1100052758955
 21
44.20999639488605
 31
0.0
  0
CIRCLE
  5
EB
330
8A
100
AcDbEntity
  8
0
 62
     7
370
    15
100
AcDbCircle
 10
155.2900052758955
 20
44.92999639488608
 30
0.0
 40
1.0
  0
LINE
  5
EC
330
8A
100
AcDbEntity
  8
0
 62
     9
370
    15
100
AcDbLine
 10
157.4700052758955
 20
45.67999639488607
 30
0.0
 11
155.2900052758955
 21
44.92999639488608
 31
0.0
  0
LINE
  5
ED
330
8A
100
AcDbEntity
  8
0
 62
     9
370
    15
100
AcDbLine
 10
159.6500052758955
 20
46.46999639488609
 30
0.0
 11
157.4700052758955
 21
45.67999639488607
 31
0.0
  0
LINE
  5
EE
330
8A
100
AcDbEntity
  8
0
 62
     9
370
    15
100
AcDbLine
 10
161.8200052758955
 20
47.28999639488607
 30
0.0
 11
159.6500052758955
 21
46.46999639488609
 31
0.0
  0
LINE
  5
EF
330
8A
100
AcDbEntity
  8
0
 62
     9
370
    15
100
AcDbLine
 10
163.9800052758955
 20
48.1499963948861
 30
0.0
 11
161.8200052758955
 21
47.28999639488607
 31
0.0
  0
LINE
  5
F0
330
8A
100
AcDbEntity
  8
0
 62
     9
370
    15
100
AcDbLine
 10
166.1400052758954
 20
49.04999639488607
 30
0.0
 11
163.9800052758955
 21
48.1499963948861
 31
0.0
  0
LINE
  5
F1
330
8A
100
AcDbEntity
  8
0
 62
     9
370
    15
100
AcDbLine
 10
168.2900052758955
 20
49.97999639488607
 30
0.0
 11
166.1400052758954
 21
49.04999639488607
 31
0.0
  0
LINE
  5
F2
330
8A
100
AcDbEntity
  8
0
 62
     9
370
    15
100
AcDbLine
 10
170.4300052758955
 20
50.94999639488604
 30
0.0
 11
168.2900052758955
 21
49.97999639488607
 31
0.0
  0
LINE
  5
F3
330
8A
100
AcDbEntity
  8
0
 62
     9
370
    15
100
AcDbLine
 10
172.5600052758955
 20
51.95999639488603
 30
0.0
 11
170.4300052758955
 21
50.94999639488604
 31
0.0
  0
CIRCLE
  5
F4
330
8A
100
AcDbEntity
  8
0
 62
     7
370
    15
100
AcDbCircle
 10
172.5600052758955
 20
51.95999639488603
 30
0.0
 40
1.0
  0
LINE
  5
F5
330
8A
100
AcDbEntity
  8
0
 62
     9
370
    15
100
AcDbLine
 10
174.6900052758955
 20
52.99999639488607
 30
0.0
 11
172.5600052758955
 21
51.95999639488603
 31
0.0
  0
LINE
  5
F6
330
8A
100
AcDbEntity
  8
0
 62
     9
370
    15
100
AcDbLine
 10
176.8000052758955
 20
54.0899963948861
 30
0.0
 11
174.6900052758955
 21
52.99999639488607
 31
0.0
  0
LINE
  5
F7
330
8A
100
AcDbEntity
  8
0
 62
     9
370
    15
100
AcDbLine
 10
177.4100052758955
 20
54.41999639488607
 30
0.0
 11
176.8000052758955
 21
54.0899963948861
 31
0.0
  0
MTEXT
  5
F8
330
8A
100
AcDbEntity
  8
0
 62
     9
100
AcDbMText
 10
17.62000527589548
 20
59.59999639488609
 30
0.0
 40
3.5
 41
0.0
 71
     1
 72
     1
  1
F
  7
Geneva
 73
     1
 44
1.0
1001
ACAD
1000
MTEXTBEGIN
1070
    73
1070
     1
1070
    44
1040
1.0
1070
    74
1070
     0
1000
MTEXTEND
  0
LINE
  5
F9
330
8A
100
AcDbEntity
  8
0
 62
     9
370
    15
100
AcDbLine
 10
23.23000527589551
 20
60.2899963948861
 30
0.0
 11
22.5500052758955
 21
60.69999639488607
 31
0.0
  0
LINE
  5
FA
330
8A
100
AcDbEntity
  8
0
 62
     9
370
    15
100
AcDbLine
 10
25.3000052758955
 20
59.06999639488606
 30
0.0
 11
23.23000527589551
 21
60.2899963948861
 31
0.0
  0
LINE
  5
FB
330
8A
100
AcDbEntity
  8
0
 62
     9
370
    15
100
AcDbLine
 10
27.38000527589548
 20
57.88999639488611
 30
0.0
 11
25.3000052758955
 21
59.06999639488606
 31
0.0
  0
LINE
  5
FC
330
8A
100
AcDbEntity
  8
0
 62
     9
370
    15
100
AcDbLine
 10
29.48000527589551
 20
56.75999639488606
 30
0.0
 11
27.38000527589548
 21
57.88999639488611
 31
0.0
  0
LINE
  5
FD
330
8A
100
AcDbEntity
  8
0
 62
     9
370
    15
100
AcDbLine
 10
31.58000527589547
 20
55.65999639488609
 30
0.0
 11
29.48000527589551
 21
56.75999639488606
 31
0.0
  0
CIRCLE
  5
FE
330
8A
100
AcDbEntity
  8
0
 62
     7
370
    15
100
AcDbCircle
 10
31.58000527589547
 20
55.65999639488609
 30
0.0
 40
1.0
  0
LINE
  5
FF
330
8A
100
AcDbEntity
  8
0
 62
     9
370
    15
100
AcDbLine
 10
33.69000527589549
 20
54.60999639488608
 30
0.0
 11
31.58000527589547
 21
55.65999639488609
 31
0.0
  0
LINE
  5
100
330
8A
100
AcDbEntity
  8
0
 62
     9
370
    15
100
AcDbLine
 10
35.82000527589548
 20
53.59999639488609
 30
0.0
 11
33.69000527589549
 21
54.60999639488608
 31
0.0
  0
LINE
  5
101
330
8A
100
AcDbEntity
  8
0
 62
     9
370
    15
100
AcDbLine
 10
37.95000527589548
 20
52.62999639488606
 30
0.0
 11
35.82000527589548
 21
53.59999639488609
 31
0.0
  0
LINE
  5
102
330
8A
100
AcDbEntity
  8
0
 62
     9
370
    15
100
AcDbLine
 10
40.09000527589546
 20
51.68999639488607
 30
0.0
 11
37.95000527589548
 21
52.62999639488606
 31
0.0
  0
LINE
  5
103
330
8A
100
AcDbEntity
  8
0
 62
     9
370
    15
100
AcDbLine
 10
42.2400052758955
 20
50.79999639488607
 30
0.0
 11
40.09000527589546
 21
51.68999639488607
 31
0.0
  0
LINE
  5
104
330
8A
100
AcDbEntity
  8
0
 62
     9
370
    15
100
AcDbLine
 10
44.39000527589548
 20
49.93999639488606
 30
0.0
 11
42.2400052758955
 21
50.79999639488607
 31
0.0
  0
LINE
  5
105
330
8A
100
AcDbEntity
  8
0
 62
     9
370
    15
100
AcDbLine
 10
46.56000527589549
 20
49.11999639488607
 30
0.0
 11
44.39000527589548
 21
49.93999639488606
 31
0.0
  0
LINE
  5
106
330
8A
100
AcDbEntity
  8
0
 62
     9
370
    15
100
AcDbLine
 10
48.73000527589545
 20
48.3399963948861
 30
0.0
 11
46.56000527589549
 21
49.11999639488607
 31
0.0
  0
CIRCLE
  5
107
330
8A
100
AcDbEntity
  8
0
 62
     7
370
    15
100
AcDbCircle
 10
48.73000527589545
 20
48.3399963948861
 30
0.0
 40
1.0
  0
LINE
  5
108
330
8A
100
AcDbEntity
  8
0
 62
     9
370
    15
100
AcDbLine
 10
50.90000527589552
 20
47.58999639488609
 30
0.0
 11
48.73000527589545
 21
48.3399963948861
 31
0.0
  0
LINE
  5
109
330
8A
100
AcDbEntity
  8
0
 62
     9
370
    15
100
AcDbLine
 10
53.08000527589547
 20
46.87999639488606
 30
0.0
 11
50.90000527589552
 21
47.58999639488609
 31
0.0
  0
LINE
  5
10A
330
8A
100
AcDbEntity
  8
0
 62
     9
370
    15
100
AcDbLine
 10
55.27000527589547
 20
46.19999639488606
 30
0.0
 11
53.08000527589547
 21
46.87999639488606
 31
0.0
  0
LINE
  5
10B
330
8A
100
AcDbEntity
  8
0
 62
     9
370
    15
100
AcDbLine
 10
57.46000527589547
 20
45.54999639488607
 30
0.0
 11
55.27000527589547
 21
46.19999639488606
 31
0.0
  0
LINE
  5
10C
330
8A
100
AcDbEntity
  8
0
 62
     9
370
    15
100
AcDbLine
 10
59.6600052758955
 20
44.93999639488606
 30
0.0
 11
57.46000527589547
 21
45.54999639488607
 31
0.0
  0
LINE
  5
10D
330
8A
100
AcDbEntity
  8
0
 62
     9
370
    15
100
AcDbLine
 10
61.8600052758955
 20
44.36999639488607
 30
0.0
 11
59.6600052758955
 21
44.93999639488606
 31
0.0
  0
LINE
  5
10E
330
8A
100
AcDbEntity
  8
0
 62
     9
370
    15
100
AcDbLine
 10
64.06000527589549
 20
43.81999639488606
 30
0.0
 11
61.8600052758955
 21
44.36999639488607
 31
0.0
  0
LINE
  5
10F
330
8A
100
AcDbEntity
  8
0
 62
     9
370
    15
100
AcDbLine
 10
66.27000527589547
 20
43.30999639488608
 30
0.0
 11
64.06000527589549
 21
43.81999639488606
 31
0.0
  0
CIRCLE
  5
110
330
8A
100
AcDbEntity
  8
0
 62
     7
370
    15
100
AcDbCircle
 10
66.27000527589547
 20
43.30999639488608
 30
0.0
 40
1.0
  0
LINE
  5
111
330
8A
100
AcDbEntity
  8
0
 62
     9
370
    15
100
AcDbLine
 10
68.48000527589551
 20
42.8399963948861
 30
0.0
 11
66.27000527589547
 21
43.30999639488608
 31
0.0
  0
LINE
  5
112
330
8A
100
AcDbEntity
  8
0
 62
     9
370
    15
100
AcDbLine
 10
70.70000527589548
 20
42.3899963948861
 30
0.0
 11
68.48000527589551
 21
42.8399963948861
 31
0.0
  0
LINE
  5
113
330
8A
100
AcDbEntity
  8
0
 62
     9
370
    15
100
AcDbLine
 10
72.9200052758955
 20
41.97999639488608
 30
0.0
 11
70.70000527589548
 21
42.3899963948861
 31
0.0
  0
LINE
  5
114
330
8A
100
AcDbEntity
  8
0
 62
     9
370
    15
100
AcDbLine
 10
75.14000527589548
 20
41.58999639488604
 30
0.0
 11
72.9200052758955
 21
41.97999639488608
 31
0.0
  0
LINE
  5
115
330
8A
100
AcDbEntity
  8
0
 62
     9
370
    15
100
AcDbLine
 10
77.3600052758955
 20
41.23999639488608
 30
0.0
 11
75.14000527589548
 21
41.58999639488604
 31
0.0
  0
LINE
  5
116
330
8A
100
AcDbEntity
  8
0
 62
     9
370
    15
100
AcDbLine
 10
79.59000527589545
 20
40.91999639488608
 30
0.0
 11
77.3600052758955
 21
41.23999639488608
 31
0.0
  0
LINE
  5
117
330
8A
100
AcDbEntity
  8
0
 62
     9
370
    15
100
AcDbLine
 10
81.82000527589549
 20
40.62999639488606
 30
0.0
 11
79.59000527589545
 21
40.91999639488608
 31
0.0
  0
LINE
  5
118
330
8A
100
AcDbEntity
  8
0
 62
     9
370
    15
100
AcDbLine
 10
84.0500052758955
 20
40.37999639488606
 30
0.0
 11
81.82000527589549
 21
40.62999639488606
 31
0.0
  0
CIRCLE
  5
119
330
8A
100
AcDbEntity
  8
0
 62
     7
370
    15
100
AcDbCircle
 10
84.0500052758955
 20
40.37999639488606
 30
0.0
 40
1.0
  0
LINE
  5
11A
330
8A
100
AcDbEntity
  8
0
 62
     9
370
    15
100
AcDbLine
 10
86.28000527589552
 20
40.1499963948861
 30
0.0
 11
84.0500052758955
 21
40.37999639488606
 31
0.0
  0
LINE
  5
11B
330
8A
100
AcDbEntity
  8
0
 62
     9
370
    15
100
AcDbLine
 10
88.52000527589545
 20
39.94999639488606
 30
0.0
 11
86.28000527589552
 21
40.1499963948861
 31
0.0
  0
LINE
  5
11C
330
8A
100
AcDbEntity
  8
0
 62
     9
370
    15
100
AcDbLine
 10
90.7500052758955
 20
39.78999639488609
 30
0.0
 11
88.52000527589545
 21
39.94999639488606
 31
0.0
  0
LINE
  5
11D
330
8A
100
AcDbEntity
  8
0
 62
     9
370
    15
100
AcDbLine
 10
92.9900052758955
 20
39.6499963948861
 30
0.0
 11
90.7500052758955
 21
39.78999639488609
 31
0.0
  0
LINE
  5
11E
330
8A
100
AcDbEntity
  8
0
 62
     9
370
    15
100
AcDbLine
 10
95.2300052758955
 20
39.54999639488608
 30
0.0
 11
92.9900052758955
 21
39.6499963948861
 31
0.0
  0
LINE
  5
11F
330
8A
100
AcDbEntity
  8
0
 62
     9
370
    15
100
AcDbLine
 10
97.46000527589549
 20
39.46999639488609
 30
0.0
 11
95.2300052758955
 21
39.54999639488608
 31
0.0
  0
LINE
  5
120
330
8A
100
AcDbEntity
  8
0
 62
     9
370
    15
100
AcDbLine
 10
99.70000527589547
 20
39.42999639488608
 30
0.0
 11
97.46000527589549
 21
39.46999639488609
 31
0.0
  0
LINE
  5
121
330
8A
100
AcDbEntity
  8
0
 62
     9
370
    15
100
AcDbLine
 10
101.9400052758955
 20
39.40999639488609
 30
0.0
 11
99.70000527589547
 21
39.42999639488608
 31
0.0
  0
CIRCLE
  5
122
330
8A
100
AcDbEntity
  8
0
 62
     7
370
    15
100
AcDbCircle
 10
101.9400052758955
 20
39.40999639488609
 30
0.0
 40
1.0
  0
LINE
  5
123
330
8A
100
AcDbEntity
  8
0
 62
     9
370
    15
100
AcDbLine
 10
104.1800052758955
 20
39.42999639488608
 30
0.0
 11
101.9400052758955
 21
39.40999639488609
 31
0.0
  0
LINE
  5
124
330
8A
100
AcDbEntity
  8
0
 62
     9
370
    15
100
AcDbLine
 10
106.4200052758955
 20
39.46999639488609
 30
0.0
 11
104.1800052758955
 21
39.42999639488608
 31
0.0
  0
LINE
  5
125
330
8A
100
AcDbEntity
  8
0
 62
     9
370
    15
100
AcDbLine
 10
108.6500052758955
 20
39.54999639488608
 30
0.0
 11
106.4200052758955
 21
39.46999639488609
 31
0.0
  0
LINE
  5
126
330
8A
100
AcDbEntity
  8
0
 62
     9
370
    15
100
AcDbLine
 10
110.8900052758954
 20
39.6499963948861
 30
0.0
 11
108.6500052758955
 21
39.54999639488608
 31
0.0
  0
LINE
  5
127
330
8A
100
AcDbEntity
  8
0
 62
     9
370
    15
100
AcDbLine
 10
113.1300052758955
 20
39.78999639488609
 30
0.0
 11
110.8900052758954
 21
39.6499963948861
 31
0.0
  0
LINE
  5
128
330
8A
100
AcDbEntity
  8
0
 62
     9
370
    15
100
AcDbLine
 10
115.3600052758955
 20
39.94999639488606
 30
0.0
 11
113.1300052758955
 21
39.78999639488609
 31
0.0
  0
LINE
  5
129
330
8A
100
AcDbEntity
  8
0
 62
     9
370
    15
100
AcDbLine
 10
117.6000052758954
 20
40.1499963948861
 30
0.0
 11
115.3600052758955
 21
39.94999639488606
 31
0.0
  0
LINE
  5
12A
330
8A
100
AcDbEntity
  8
0
 62
     9
370
    15
100
AcDbLine
 10
119.8300052758954
 20
40.37999639488606
 30
0.0
 11
117.6000052758954
 21
40.1499963948861
 31
0.0
  0
CIRCLE
  5
12B
330
8A
100
AcDbEntity
  8
0
 62
     7
370
    15
100
AcDbCircle
 10
119.8300052758954
 20
40.37999639488606
 30
0.0
 40
1.0
  0
LINE
  5
12C
330
8A
100
AcDbEntity
  8
0
 62
     9
370
    15
100
AcDbLine
 10
122.0600052758955
 20
40.62999639488606
 30
0.0
 11
119.8300052758954
 21
40.37999639488606
 31
0.0
  0
LINE
  5
12D
330
8A
100
AcDbEntity
  8
0
 62
     9
370
    15
100
AcDbLine
 10
124.2900052758955
 20
40.91999639488608
 30
0.0
 11
122.0600052758955
 21
40.62999639488606
 31
0.0
  0
LINE
  5
12E
330
8A
100
AcDbEntity
  8
0
 62
     9
370
    15
100
AcDbLine
 10
126.5200052758955
 20
41.23999639488608
 30
0.0
 11
124.2900052758955
 21
40.91999639488608
 31
0.0
  0
LINE
  5
12F
330
8A
100
AcDbEntity
  8
0
 62
     9
370
    15
100
AcDbLine
 10
128.7400052758955
 20
41.58999639488604
 30
0.0
 11
126.5200052758955
 21
41.23999639488608
 31
0.0
  0
LINE
  5
130
330
8A
100
AcDbEntity
  8
0
 62
     9
370
    15
100
AcDbLine
 10
130.9600052758954
 20
41.97999639488608
 30
0.0
 11
128.7400052758955
 21
41.58999639488604
 31
0.0
  0
LINE
  5
131
330
8A
100
AcDbEntity
  8
0
 62
     9
370
    15
100
AcDbLine
 10
133.1800052758955
 20
42.3899963948861
 30
0.0
 11
130.9600052758954
 21
41.97999639488608
 31
0.0
  0
LINE
  5
132
330
8A
100
AcDbEntity
  8
0
 62
     9
370
    15
100
AcDbLine
 10
135.4000052758955
 20
42.8399963948861
 30
0.0
 11
133.1800052758955
 21
42.3899963948861
 31
0.0
  0
LINE
  5
133
330
8A
100
AcDbEntity
  8
0
 62
     9
370
    15
100
AcDbLine
 10
137.6100052758954
 20
43.30999639488608
 30
0.0
 11
135.4000052758955
 21
42.8399963948861
 31
0.0
  0
CIRCLE
  5
134
330
8A
100
AcDbEntity
  8
0
 62
     7
370
    15
100
AcDbCircle
 10
137.6100052758954
 20
43.30999639488608
 30
0.0
 40
1.0
  0
LINE
  5
135
330
8A
100
AcDbEntity
  8
0
 62
     9
370
    15
100
AcDbLine
 10
139.8200052758955
 20
43.81999639488606
 30
0.0
 11
137.6100052758954
 21
43.30999639488608
 31
0.0
  0
LINE
  5
136
330
8A
100
AcDbEntity
  8
0
 62
     9
370
    15
100
AcDbLine
 10
142.0200052758955
 20
44.36999639488607
 30
0.0
 11
139.8200052758955
 21
43.81999639488606
 31
0.0
  0
LINE
  5
137
330
8A
100
AcDbEntity
  8
0
 62
     9
370
    15
100
AcDbLine
 10
144.2200052758954
 20
44.93999639488606
 30
0.0
 11
142.0200052758955
 21
44.36999639488607
 31
0.0
  0
LINE
  5
138
330
8A
100
AcDbEntity
  8
0
 62
     9
370
    15
100
AcDbLine
 10
146.4200052758955
 20
45.54999639488607
 30
0.0
 11
144.2200052758954
 21
44.93999639488606
 31
0.0
  0
LINE
  5
139
330
8A
100
AcDbEntity
  8
0
 62
     9
370
    15
100
AcDbLine
 10
148.6100052758954
 20
46.19999639488606
 30
0.0
 11
146.4200052758955
 21
45.54999639488607
 31
0.0
  0
LINE
  5
13A
330
8A
100
AcDbEntity
  8
0
 62
     9
370
    15
100
AcDbLine
 10
150.8000052758955
 20
46.87999639488606
 30
0.0
 11
148.6100052758954
 21
46.19999639488606
 31
0.0
  0
LINE
  5
13B
330
8A
100
AcDbEntity
  8
0
 62
     9
370
    15
100
AcDbLine
 10
152.9800052758955
 20
47.58999639488609
 30
0.0
 11
150.8000052758955
 21
46.87999639488606
 31
0.0
  0
LINE
  5
13C
330
8A
100
AcDbEntity
  8
0
 62
     9
370
    15
100
AcDbLine
 10
155.1500052758955
 20
48.3399963948861
 30
0.0
 11
152.9800052758955
 21
47.58999639488609
 31
0.0
  0
CIRCLE
  5
13D
330
8A
100
AcDbEntity
  8
0
 62
     7
370
    15
100
AcDbCircle
 10
155.1500052758955
 20
48.3399963948861
 30
0.0
 40
1.0
  0
LINE
  5
13E
330
8A
100
AcDbEntity
  8
0
 62
     9
370
    15
100
AcDbLine
 10
157.3200052758955
 20
49.11999639488607
 30
0.0
 11
155.1500052758955
 21
48.3399963948861
 31
0.0
  0
LINE
  5
13F
330
8A
100
AcDbEntity
  8
0
 62
     9
370
    15
100
AcDbLine
 10
159.4900052758955
 20
49.93999639488606
 30
0.0
 11
157.3200052758955
 21
49.11999639488607
 31
0.0
  0
LINE
  5
140
330
8A
100
AcDbEntity
  8
0
 62
     9
370
    15
100
AcDbLine
 10
161.6400052758955
 20
50.79999639488607
 30
0.0
 11
159.4900052758955
 21
49.93999639488606
 31
0.0
  0
LINE
  5
141
330
8A
100
AcDbEntity
  8
0
 62
     9
370
    15
100
AcDbLine
 10
163.7900052758955
 20
51.68999639488607
 30
0.0
 11
161.6400052758955
 21
50.79999639488607
 31
0.0
  0
LINE
  5
142
330
8A
100
AcDbEntity
  8
0
 62
     9
370
    15
100
AcDbLine
 10
165.9300052758955
 20
52.62999639488606
 30
0.0
 11
163.7900052758955
 21
51.68999639488607
 31
0.0
  0
LINE
  5
143
330
8A
100
AcDbEntity
  8
0
 62
     9
370
    15
100
AcDbLine
 10
168.0600052758955
 20
53.59999639488609
 30
0.0
 11
165.9300052758955
 21
52.62999639488606
 31
0.0
  0
LINE
  5
144
330
8A
100
AcDbEntity
  8
0
 62
     9
370
    15
100
AcDbLine
 10
170.1900052758955
 20
54.60999639488608
 30
0.0
 11
168.0600052758955
 21
53.59999639488609
 31
0.0
  0
LINE
  5
145
330
8A
100
AcDbEntity
  8
0
 62
     9
370
    15
100
AcDbLine
 10
172.3000052758955
 20
55.65999639488609
 30
0.0
 11
170.1900052758955
 21
54.60999639488608
 31
0.0
  0
CIRCLE
  5
146
330
8A
100
AcDbEntity
  8
0
 62
     7
370
    15
100
AcDbCircle
 10
172.3000052758955
 20
55.65999639488609
 30
0.0
 40
1.0
  0
LINE
  5
147
330
8A
100
AcDbEntity
  8
0
 62
     9
370
    15
100
AcDbLine
 10
174.4000052758955
 20
56.75999639488606
 30
0.0
 11
172.3000052758955
 21
55.65999639488609
 31
0.0
  0
LINE
  5
148
330
8A
100
AcDbEntity
  8
0
 62
     9
370
    15
100
AcDbLine
 10
176.5000052758955
 20
57.88999639488611
 30
0.0
 11
174.4000052758955
 21
56.75999639488606
 31
0.0
  0
LINE
  5
149
330
8A
100
AcDbEntity
  8
0
 62
     9
370
    15
100
AcDbLine
 10
178.5800052758955
 20
59.06999639488606
 30
0.0
 11
176.5000052758955
 21
57.88999639488611
 31
0.0
  0
LINE
  5
14A
330
8A
100
AcDbEntity
  8
0
 62
     9
370
    15
100
AcDbLine
 10
180.6500052758955
 20
60.2899963948861
 30
0.0
 11
178.5800052758955
 21
59.06999639488606
 31
0.0
  0
LINE
  5
14B
330
8A
100
AcDbEntity
  8
0
 62
     9
370
    15
100
AcDbLine
 10
181.3300052758954
 20
60.69999639488607
 30
0.0
 11
180.6500052758955
 21
60.2899963948861
 31
0.0
  0
MTEXT
  5
14C
330
8A
100
AcDbEntity
  8
0
 62
     9
100
AcDbMText
 10
9.580005275895473
 20
78.38999639488611
 30
0.0
 40
3.5
 41
0.0
 71
     1
 72
     1
  1
E
  7
Geneva
 73
     1
 44
1.0
1001
ACAD
1000
MTEXTBEGIN
1070
    73
1070
     1
1070
    44
1040
1.0
1070
    74
1070
     0
1000
MTEXTEND
  0
LINE
  5
14D
330
8A
100
AcDbEntity
  8
0
 62
     9
370
    15
100
AcDbLine
 10
15.6100052758955
 20
78.51999639488609
 30
0.0
 11
14.51000527589548
 21
79.49999639488606
 31
0.0
  0
LINE
  5
14E
330
8A
100
AcDbEntity
  8
0
 62
     9
370
    15
100
AcDbLine
 10
17.48000527589551
 20
76.92999639488608
 30
0.0
 11
15.6100052758955
 21
78.51999639488609
 31
0.0
  0
CIRCLE
  5
14F
330
8A
100
AcDbEntity
  8
0
 62
     7
370
    15
100
AcDbCircle
 10
17.48000527589551
 20
76.92999639488608
 30
0.0
 40
1.0
  0
LINE
  5
150
330
8A
100
AcDbEntity
  8
0
 62
     9
370
    15
100
AcDbLine
 10
19.37000527589549
 20
75.38999639488611
 30
0.0
 11
17.48000527589551
 21
76.92999639488608
 31
0.0
  0
LINE
  5
151
330
8A
100
AcDbEntity
  8
0
 62
     9
370
    15
100
AcDbLine
 10
21.28000527589552
 20
73.90999639488609
 30
0.0
 11
19.37000527589549
 21
75.38999639488611
 31
0.0
  0
LINE
  5
152
330
8A
100
AcDbEntity
  8
0
 62
     9
370
    15
100
AcDbLine
 10
23.21000527589546
 20
72.4699963948861
 30
0.0
 11
21.28000527589552
 21
73.90999639488609
 31
0.0
  0
LINE
  5
153
330
8A
100
AcDbEntity
  8
0
 62
     9
370
    15
100
AcDbLine
 10
25.16000527589552
 20
71.0899963948861
 30
0.0
 11
23.21000527589546
 21
72.4699963948861
 31
0.0
  0
LINE
  5
154
330
8A
100
AcDbEntity
  8
0
 62
     9
370
    15
100
AcDbLine
 10
27.13000527589549
 20
69.74999639488607
 30
0.0
 11
25.16000527589552
 21
71.0899963948861
 31
0.0
  0
LINE
  5
155
330
8A
100
AcDbEntity
  8
0
 62
     9
370
    15
100
AcDbLine
 10
29.1200052758955
 20
68.45999639488605
 30
0.0
 11
27.13000527589549
 21
69.74999639488607
 31
0.0
  0
LINE
  5
156
330
8A
100
AcDbEntity
  8
0
 62
     9
370
    15
100
AcDbLine
 10
31.12000527589549
 20
67.21999639488609
 30
0.0
 11
29.1200052758955
 21
68.45999639488605
 31
0.0
  0
LINE
  5
157
330
8A
100
AcDbEntity
  8
0
 62
     9
370
    15
100
AcDbLine
 10
33.14000527589548
 20
66.0199963948861
 30
0.0
 11
31.12000527589549
 21
67.21999639488609
 31
0.0
  0
CIRCLE
  5
158
330
8A
100
AcDbEntity
  8
0
 62
     7
370
    15
100
AcDbCircle
 10
33.14000527589548
 20
66.0199963948861
 30
0.0
 40
1.0
  0
LINE
  5
159
330
8A
100
AcDbEntity
  8
0
 62
     9
370
    15
100
AcDbLine
 10
35.17000527589551
 20
64.86999639488607
 30
0.0
 11
33.14000527589548
 21
66.0199963948861
 31
0.0
  0
LINE
  5
15A
330
8A
100
AcDbEntity
  8
0
 62
     9
370
    15
100
AcDbLine
 10
37.21000527589547
 20
63.75999639488607
 30
0.0
 11
35.17000527589551
 21
64.86999639488607
 31
0.0
  0
LINE
  5
15B
330
8A
100
AcDbEntity
  8
0
 62
     9
370
    15
100
AcDbLine
 10
39.27000527589547
 20
62.69999639488606
 30
0.0
 11
37.21000527589547
 21
63.75999639488607
 31
0.0
  0
LINE
  5
15C
330
8A
100
AcDbEntity
  8
0
 62
     9
370
    15
100
AcDbLine
 10
41.33000527589547
 20
61.67999639488607
 30
0.0
 11
39.27000527589547
 21
62.69999639488606
 31
0.0
  0
LINE
  5
15D
330
8A
100
AcDbEntity
  8
0
 62
     9
370
    15
100
AcDbLine
 10
43.4100052758955
 20
60.69999639488607
 30
0.0
 11
41.33000527589547
 21
61.67999639488607
 31
0.0
  0
LINE
  5
15E
330
8A
100
AcDbEntity
  8
0
 62
     9
370
    15
100
AcDbLine
 10
45.50000527589548
 20
59.75999639488605
 30
0.0
 11
43.4100052758955
 21
60.69999639488607
 31
0.0
  0
LINE
  5
15F
330
8A
100
AcDbEntity
  8
0
 62
     9
370
    15
100
AcDbLine
 10
47.60000527589546
 20
58.85999639488607
 30
0.0
 11
45.50000527589548
 21
59.75999639488605
 31
0.0
  0
LINE
  5
160
330
8A
100
AcDbEntity
  8
0
 62
     9
370
    15
100
AcDbLine
 10
49.71000527589547
 20
57.99999639488607
 30
0.0
 11
47.60000527589546
 21
58.85999639488607
 31
0.0
  0
CIRCLE
  5
161
330
8A
100
AcDbEntity
  8
0
 62
     7
370
    15
100
AcDbCircle
 10
49.71000527589547
 20
57.99999639488607
 30
0.0
 40
1.0
  0
LINE
  5
162
330
8A
100
AcDbEntity
  8
0
 62
     9
370
    15
100
AcDbLine
 10
51.83000527589547
 20
57.17999639488607
 30
0.0
 11
49.71000527589547
 21
57.99999639488607
 31
0.0
  0
LINE
  5
163
330
8A
100
AcDbEntity
  8
0
 62
     9
370
    15
100
AcDbLine
 10
53.95000527589548
 20
56.3999963948861
 30
0.0
 11
51.83000527589547
 21
57.17999639488607
 31
0.0
  0
LINE
  5
164
330
8A
100
AcDbEntity
  8
0
 62
     9
370
    15
100
AcDbLine
 10
56.09000527589547
 20
55.65999639488609
 30
0.0
 11
53.95000527589548
 21
56.3999963948861
 31
0.0
  0
LINE
  5
165
330
8A
100
AcDbEntity
  8
0
 62
     9
370
    15
100
AcDbLine
 10
58.23000527589545
 20
54.94999639488606
 30
0.0
 11
56.09000527589547
 21
55.65999639488609
 31
0.0
  0
LINE
  5
166
330
8A
100
AcDbEntity
  8
0
 62
     9
370
    15
100
AcDbLine
 10
60.37000527589549
 20
54.27999639488611
 30
0.0
 11
58.23000527589545
 21
54.94999639488606
 31
0.0
  0
LINE
  5
167
330
8A
100
AcDbEntity
  8
0
 62
     9
370
    15
100
AcDbLine
 10
62.53000527589552
 20
53.6499963948861
 30
0.0
 11
60.37000527589549
 21
54.27999639488611
 31
0.0
  0
LINE
  5
168
330
8A
100
AcDbEntity
  8
0
 62
     9
370
    15
100
AcDbLine
 10
64.69000527589549
 20
53.05999639488607
 30
0.0
 11
62.53000527589552
 21
53.6499963948861
 31
0.0
  0
LINE
  5
169
330
8A
100
AcDbEntity
  8
0
 62
     9
370
    15
100
AcDbLine
 10
66.85000527589545
 20
52.49999639488606
 30
0.0
 11
64.69000527589549
 21
53.05999639488607
 31
0.0
  0
CIRCLE
  5
16A
330
8A
100
AcDbEntity
  8
0
 62
     7
370
    15
100
AcDbCircle
 10
66.85000527589545
 20
52.49999639488606
 30
0.0
 40
1.0
  0
LINE
  5
16B
330
8A
100
AcDbEntity
  8
0
 62
     9
370
    15
100
AcDbLine
 10
69.02000527589547
 20
51.96999639488609
 30
0.0
 11
66.85000527589545
 21
52.49999639488606
 31
0.0
  0
LINE
  5
16C
330
8A
100
AcDbEntity
  8
0
 62
     9
370
    15
100
AcDbLine
 10
71.19000527589548
 20
51.48999639488607
 30
0.0
 11
69.02000527589547
 21
51.96999639488609
 31
0.0
  0
LINE
  5
16D
330
8A
100
AcDbEntity
  8
0
 62
     9
370
    15
100
AcDbLine
 10
73.37000527589548
 20
51.02999639488611
 30
0.0
 11
71.19000527589548
 21
51.48999639488607
 31
0.0
  0
LINE
  5
16E
330
8A
100
AcDbEntity
  8
0
 62
     9
370
    15
100
AcDbLine
 10
75.56000527589548
 20
50.60999639488607
 30
0.0
 11
73.37000527589548
 21
51.02999639488611
 31
0.0
  0
LINE
  5
16F
330
8A
100
AcDbEntity
  8
0
 62
     9
370
    15
100
AcDbLine
 10
77.74000527589548
 20
50.2299963948861
 30
0.0
 11
75.56000527589548
 21
50.60999639488607
 31
0.0
  0
LINE
  5
170
330
8A
100
AcDbEntity
  8
0
 62
     9
370
    15
100
AcDbLine
 10
79.9300052758955
 20
49.87999639488606
 30
0.0
 11
77.74000527589548
 21
50.2299963948861
 31
0.0
  0
LINE
  5
171
330
8A
100
AcDbEntity
  8
0
 62
     9
370
    15
100
AcDbLine
 10
82.1200052758955
 20
49.55999639488608
 30
0.0
 11
79.9300052758955
 21
49.87999639488606
 31
0.0
  0
LINE
  5
172
330
8A
100
AcDbEntity
  8
0
 62
     9
370
    15
100
AcDbLine
 10
84.32000527589549
 20
49.27999639488611
 30
0.0
 11
82.1200052758955
 21
49.55999639488608
 31
0.0
  0
CIRCLE
  5
173
330
8A
100
AcDbEntity
  8
0
 62
     7
370
    15
100
AcDbCircle
 10
84.32000527589549
 20
49.27999639488611
 30
0.0
 40
1.0
  0
LINE
  5
174
330
8A
100
AcDbEntity
  8
0
 62
     9
370
    15
100
AcDbLine
 10
86.52000527589548
 20
49.02999639488609
 30
0.0
 11
84.32000527589549
 21
49.27999639488611
 31
0.0
  0
LINE
  5
175
330
8A
100
AcDbEntity
  8
0
 62
     9
370
    15
100
AcDbLine
 10
88.72000527589547
 20
48.81999639488606
 30
0.0
 11
86.52000527589548
 21
49.02999639488609
 31
0.0
  0
LINE
  5
176
330
8A
100
AcDbEntity
  8
0
 62
     9
370
    15
100
AcDbLine
 10
90.92000527589553
 20
48.63999639488611
 30
0.0
 11
88.72000527589547
 21
48.81999639488606
 31
0.0
  0
LINE
  5
177
330
8A
100
AcDbEntity
  8
0
 62
     9
370
    15
100
AcDbLine
 10
93.1200052758955
 20
48.48999639488607
 30
0.0
 11
90.92000527589553
 21
48.63999639488611
 31
0.0
  0
LINE
  5
178
330
8A
100
AcDbEntity
  8
0
 62
     9
370
    15
100
AcDbLine
 10
95.32000527589548
 20
48.36999639488607
 30
0.0
 11
93.1200052758955
 21
48.48999639488607
 31
0.0
  0
LINE
  5
179
330
8A
100
AcDbEntity
  8
0
 62
     9
370
    15
100
AcDbLine
 10
97.53000527589552
 20
48.2899963948861
 30
0.0
 11
95.32000527589548
 21
48.36999639488607
 31
0.0
  0
LINE
  5
17A
330
8A
100
AcDbEntity
  8
0
 62
     9
370
    15
100
AcDbLine
 10
99.73000527589553
 20
48.23999639488608
 30
0.0
 11
97.53000527589552
 21
48.2899963948861
 31
0.0
  0
LINE
  5
17B
330
8A
100
AcDbEntity
  8
0
 62
     9
370
    15
100
AcDbLine
 10
101.9400052758955
 20
48.21999639488609
 30
0.0
 11
99.73000527589553
 21
48.23999639488608
 31
0.0
  0
CIRCLE
  5
17C
330
8A
100
AcDbEntity
  8
0
 62
     7
370
    15
100
AcDbCircle
 10
101.9400052758955
 20
48.21999639488609
 30
0.0
 40
1.0
  0
LINE
  5
17D
330
8A
100
AcDbEntity
  8
0
 62
     9
370
    15
100
AcDbLine
 10
104.1500052758954
 20
48.23999639488608
 30
0.0
 11
101.9400052758955
 21
48.21999639488609
 31
0.0
  0
LINE
  5
17E
330
8A
100
AcDbEntity
  8
0
 62
     9
370
    15
100
AcDbLine
 10
106.3500052758954
 20
48.2899963948861
 30
0.0
 11
104.1500052758954
 21
48.23999639488608
 31
0.0
  0
LINE
  5
17F
330
8A
100
AcDbEntity
  8
0
 62
     9
370
    15
100
AcDbLine
 10
108.5600052758955
 20
48.36999639488607
 30
0.0
 11
106.3500052758954
 21
48.2899963948861
 31
0.0
  0
LINE
  5
180
330
8A
100
AcDbEntity
  8
0
 62
     9
370
    15
100
AcDbLine
 10
110.7600052758955
 20
48.48999639488607
 30
0.0
 11
108.5600052758955
 21
48.36999639488607
 31
0.0
  0
LINE
  5
181
330
8A
100
AcDbEntity
  8
0
 62
     9
370
    15
100
AcDbLine
 10
112.9600052758954
 20
48.63999639488611
 30
0.0
 11
110.7600052758955
 21
48.48999639488607
 31
0.0
  0
LINE
  5
182
330
8A
100
AcDbEntity
  8
0
 62
     9
370
    15
100
AcDbLine
 10
115.1600052758955
 20
48.81999639488606
 30
0.0
 11
112.9600052758954
 21
48.63999639488611
 31
0.0
  0
LINE
  5
183
330
8A
100
AcDbEntity
  8
0
 62
     9
370
    15
100
AcDbLine
 10
117.3600052758955
 20
49.02999639488609
 30
0.0
 11
115.1600052758955
 21
48.81999639488606
 31
0.0
  0
LINE
  5
184
330
8A
100
AcDbEntity
  8
0
 62
     9
370
    15
100
AcDbLine
 10
119.5600052758955
 20
49.27999639488611
 30
0.0
 11
117.3600052758955
 21
49.02999639488609
 31
0.0
  0
CIRCLE
  5
185
330
8A
100
AcDbEntity
  8
0
 62
     7
370
    15
100
AcDbCircle
 10
119.5600052758955
 20
49.27999639488611
 30
0.0
 40
1.0
  0
LINE
  5
186
330
8A
100
AcDbEntity
  8
0
 62
     9
370
    15
100
AcDbLine
 10
121.7600052758954
 20
49.55999639488608
 30
0.0
 11
119.5600052758955
 21
49.27999639488611
 31
0.0
  0
LINE
  5
187
330
8A
100
AcDbEntity
  8
0
 62
     9
370
    15
100
AcDbLine
 10
123.9500052758955
 20
49.87999639488606
 30
0.0
 11
121.7600052758954
 21
49.55999639488608
 31
0.0
  0
LINE
  5
188
330
8A
100
AcDbEntity
  8
0
 62
     9
370
    15
100
AcDbLine
 10
126.1400052758955
 20
50.2299963948861
 30
0.0
 11
123.9500052758955
 21
49.87999639488606
 31
0.0
  0
LINE
  5
189
330
8A
100
AcDbEntity
  8
0
 62
     9
370
    15
100
AcDbLine
 10
128.3200052758955
 20
50.60999639488607
 30
0.0
 11
126.1400052758955
 21
50.2299963948861
 31
0.0
  0
LINE
  5
18A
330
8A
100
AcDbEntity
  8
0
 62
     9
370
    15
100
AcDbLine
 10
130.5100052758955
 20
51.02999639488611
 30
0.0
 11
128.3200052758955
 21
50.60999639488607
 31
0.0
  0
LINE
  5
18B
330
8A
100
AcDbEntity
  8
0
 62
     9
370
    15
100
AcDbLine
 10
132.6900052758955
 20
51.48999639488607
 30
0.0
 11
130.5100052758955
 21
51.02999639488611
 31
0.0
  0
LINE
  5
18C
330
8A
100
AcDbEntity
  8
0
 62
     9
370
    15
100
AcDbLine
 10
134.8600052758954
 20
51.96999639488609
 30
0.0
 11
132.6900052758955
 21
51.48999639488607
 31
0.0
  0
LINE
  5
18D
330
8A
100
AcDbEntity
  8
0
 62
     9
370
    15
100
AcDbLine
 10
137.0300052758955
 20
52.49999639488606
 30
0.0
 11
134.8600052758954
 21
51.96999639488609
 31
0.0
  0
CIRCLE
  5
18E
330
8A
100
AcDbEntity
  8
0
 62
     7
370
    15
100
AcDbCircle
 10
137.0300052758955
 20
52.49999639488606
 30
0.0
 40
1.0
  0
LINE
  5
18F
330
8A
100
AcDbEntity
  8
0
 62
     9
370
    15
100
AcDbLine
 10
139.1900052758955
 20
53.05999639488607
 30
0.0
 11
137.0300052758955
 21
52.49999639488606
 31
0.0
  0
LINE
  5
190
330
8A
100
AcDbEntity
  8
0
 62
     9
370
    15
100
AcDbLine
 10
141.3500052758954
 20
53.6499963948861
 30
0.0
 11
139.1900052758955
 21
53.05999639488607
 31
0.0
  0
LINE
  5
191
330
8A
100
AcDbEntity
  8
0
 62
     9
370
    15
100
AcDbLine
 10
143.5100052758954
 20
54.27999639488611
 30
0.0
 11
141.3500052758954
 21
53.6499963948861
 31
0.0
  0
LINE
  5
192
330
8A
100
AcDbEntity
  8
0
 62
     9
370
    15
100
AcDbLine
 10
145.6500052758955
 20
54.94999639488606
 30
0.0
 11
143.5100052758954
 21
54.27999639488611
 31
0.0
  0
LINE
  5
193
330
8A
100
AcDbEntity
  8
0
 62
     9
370
    15
100
AcDbLine
 10
147.7900052758954
 20
55.65999639488609
 30
0.0
 11
145.6500052758955
 21
54.94999639488606
 31
0.0
  0
LINE
  5
194
330
8A
100
AcDbEntity
  8
0
 62
     9
370
    15
100
AcDbLine
 10
149.9300052758955
 20
56.3999963948861
 30
0.0
 11
147.7900052758954
 21
55.65999639488609
 31
0.0
  0
LINE
  5
195
330
8A
100
AcDbEntity
  8
0
 62
     9
370
    15
100
AcDbLine
 10
152.0500052758955
 20
57.17999639488607
 30
0.0
 11
149.9300052758955
 21
56.3999963948861
 31
0.0
  0
LINE
  5
196
330
8A
100
AcDbEntity
  8
0
 62
     9
370
    15
100
AcDbLine
 10
154.1700052758955
 20
57.99999639488607
 30
0.0
 11
152.0500052758955
 21
57.17999639488607
 31
0.0
  0
CIRCLE
  5
197
330
8A
100
AcDbEntity
  8
0
 62
     7
370
    15
100
AcDbCircle
 10
154.1700052758955
 20
57.99999639488607
 30
0.0
 40
1.0
  0
LINE
  5
198
330
8A
100
AcDbEntity
  8
0
 62
     9
370
    15
100
AcDbLine
 10
156.2800052758955
 20
58.85999639488607
 30
0.0
 11
154.1700052758955
 21
57.99999639488607
 31
0.0
  0
LINE
  5
199
330
8A
100
AcDbEntity
  8
0
 62
     9
370
    15
100
AcDbLine
 10
158.3800052758955
 20
59.75999639488605
 30
0.0
 11
156.2800052758955
 21
58.85999639488607
 31
0.0
  0
LINE
  5
19A
330
8A
100
AcDbEntity
  8
0
 62
     9
370
    15
100
AcDbLine
 10
160.4700052758955
 20
60.69999639488607
 30
0.0
 11
158.3800052758955
 21
59.75999639488605
 31
0.0
  0
LINE
  5
19B
330
8A
100
AcDbEntity
  8
0
 62
     9
370
    15
100
AcDbLine
 10
162.5500052758955
 20
61.67999639488607
 30
0.0
 11
160.4700052758955
 21
60.69999639488607
 31
0.0
  0
LINE
  5
19C
330
8A
100
AcDbEntity
  8
0
 62
     9
370
    15
100
AcDbLine
 10
164.6100052758955
 20
62.69999639488606
 30
0.0
 11
162.5500052758955
 21
61.67999639488607
 31
0.0
  0
LINE
  5
19D
330
8A
100
AcDbEntity
  8
0
 62
     9
370
    15
100
AcDbLine
 10
166.6700052758955
 20
63.75999639488607
 30
0.0
 11
164.6100052758955
 21
62.69999639488606
 31
0.0
  0
LINE
  5
19E
330
8A
100
AcDbEntity
  8
0
 62
     9
370
    15
100
AcDbLine
 10
168.7100052758955
 20
64.86999639488607
 30
0.0
 11
166.6700052758955
 21
63.75999639488607
 31
0.0
  0
LINE
  5
19F
330
8A
100
AcDbEntity
  8
0
 62
     9
370
    15
100
AcDbLine
 10
170.7400052758955
 20
66.0199963948861
 30
0.0
 11
168.7100052758955
 21
64.86999639488607
 31
0.0
  0
CIRCLE
  5
1A0
330
8A
100
AcDbEntity
  8
0
 62
     7
370
    15
100
AcDbCircle
 10
170.7400052758955
 20
66.0199963948861
 30
0.0
 40
1.0
  0
LINE
  5
1A1
330
8A
100
AcDbEntity
  8
0
 62
     9
370
    15
100
AcDbLine
 10
172.7600052758955
 20
67.21999639488609
 30
0.0
 11
170.7400052758955
 21
66.0199963948861
 31
0.0
  0
LINE
  5
1A2
330
8A
100
AcDbEntity
  8
0
 62
     9
370
    15
100
AcDbLine
 10
174.7600052758954
 20
68.45999639488605
 30
0.0
 11
172.7600052758955
 21
67.21999639488609
 31
0.0
  0
LINE
  5
1A3
330
8A
100
AcDbEntity
  8
0
 62
     9
370
    15
100
AcDbLine
 10
176.7500052758955
 20
69.74999639488607
 30
0.0
 11
174.7600052758954
 21
68.45999639488605
 31
0.0
  0
LINE
  5
1A4
330
8A
100
AcDbEntity
  8
0
 62
     9
370
    15
100
AcDbLine
 10
178.7200052758955
 20
71.0899963948861
 30
0.0
 11
176.7500052758955
 21
69.74999639488607
 31
0.0
  0
LINE
  5
1A5
330
8A
100
AcDbEntity
  8
0
 62
     9
370
    15
100
AcDbLine
 10
180.6700052758954
 20
72.4699963948861
 30
0.0
 11
178.7200052758955
 21
71.0899963948861
 31
0.0
  0
LINE
  5
1A6
330
8A
100
AcDbEntity
  8
0
 62
     9
370
    15
100
AcDbLine
 10
182.6000052758955
 20
73.90999639488609
 30
0.0
 11
180.6700052758954
 21
72.4699963948861
 31
0.0
  0
LINE
  5
1A7
330
8A
100
AcDbEntity
  8
0
 62
     9
370
    15
100
AcDbLine
 10
184.5100052758955
 20
75.38999639488611
 30
0.0
 11
182.6000052758955
 21
73.90999639488609
 31
0.0
  0
LINE
  5
1A8
330
8A
100
AcDbEntity
  8
0
 62
     9
370
    15
100
AcDbLine
 10
186.4000052758955
 20
76.92999639488608
 30
0.0
 11
184.5100052758955
 21
75.38999639488611
 31
0.0
  0
CIRCLE
  5
1A9
330
8A
100
AcDbEntity
  8
0
 62
     7
370
    15
100
AcDbCircle
 10
186.4000052758955
 20
76.92999639488608
 30
0.0
 40
1.0
  0
LINE
  5
1AA
330
8A
100
AcDbEntity
  8
0
 62
     9
370
    15
100
AcDbLine
 10
188.2700052758955
 20
78.51999639488609
 30
0.0
 11
186.4000052758955
 21
76.92999639488608
 31
0.0
  0
LINE
  5
1AB
330
8A
100
AcDbEntity
  8
0
 62
     9
370
    15
100
AcDbLine
 10
189.3700052758955
 20
79.49999639488606
 30
0.0
 11
188.2700052758955
 21
78.51999639488609
 31
0.0
  0
MTEXT
  5
1AC
330
8A
100
AcDbEntity
  8
0
 62
     9
100
AcDbMText
 10
5.710005275895468
 20
104.2399963948861
 30
0.0
 40
3.5
 41
0.0
 71
     1
 72
     1
  1
D
  7
Geneva
 73
     1
 44
1.0
1001
ACAD
1000
MTEXTBEGIN
1070
    73
1070
     1
1070
    44
1040
1.0
1070
    74
1070
     0
1000
MTEXTEND
  0
LINE
  5
1AD
330
8A
100
AcDbEntity
  8
0
 62
     9
370
    15
100
AcDbLine
 10
11.87000527589549
 20
103.489996394886
 30
0.0
 11
10.64000527589547
 21
105.3499963948861
 31
0.0
  0
LINE
  5
1AE
330
8A
100
AcDbEntity
  8
0
 62
     9
370
    15
100
AcDbLine
 10
13.29000527589551
 20
101.4699963948861
 30
0.0
 11
11.87000527589549
 21
103.489996394886
 31
0.0
  0
LINE
  5
1AF
330
8A
100
AcDbEntity
  8
0
 62
     9
370
    15
100
AcDbLine
 10
14.75000527589549
 20
99.50999639488607
 30
0.0
 11
13.29000527589551
 21
101.4699963948861
 31
0.0
  0
LINE
  5
1B0
330
8A
100
AcDbEntity
  8
0
 62
     9
370
    15
100
AcDbLine
 10
16.25000527589549
 20
97.60999639488607
 30
0.0
 11
14.75000527589549
 21
99.50999639488607
 31
0.0
  0
LINE
  5
1B1
330
8A
100
AcDbEntity
  8
0
 62
     9
370
    15
100
AcDbLine
 10
17.8000052758955
 20
95.75999639488605
 30
0.0
 11
16.25000527589549
 21
97.60999639488607
 31
0.0
  0
LINE
  5
1B2
330
8A
100
AcDbEntity
  8
0
 62
     9
370
    15
100
AcDbLine
 10
19.38000527589548
 20
93.97999639488608
 30
0.0
 11
17.8000052758955
 21
95.75999639488605
 31
0.0
  0
LINE
  5
1B3
330
8A
100
AcDbEntity
  8
0
 62
     9
370
    15
100
AcDbLine
 10
20.9900052758955
 20
92.24999639488606
 30
0.0
 11
19.38000527589548
 21
93.97999639488608
 31
0.0
  0
LINE
  5
1B4
330
8A
100
AcDbEntity
  8
0
 62
     9
370
    15
100
AcDbLine
 10
22.64000527589548
 20
90.56999639488607
 30
0.0
 11
20.9900052758955
 21
92.24999639488606
 31
0.0
  0
CIRCLE
  5
1B5
330
8A
100
AcDbEntity
  8
0
 62
     7
370
    15
100
AcDbCircle
 10
22.64000527589548
 20
90.56999639488607
 30
0.0
 40
1.0
  0
LINE
  5
1B6
330
8A
100
AcDbEntity
  8
0
 62
     9
370
    15
100
AcDbLine
 10
24.31000527589549
 20
88.94999639488606
 30
0.0
 11
22.64000527589548
 21
90.56999639488607
 31
0.0
  0
LINE
  5
1B7
330
8A
100
AcDbEntity
  8
0
 62
     9
370
    15
100
AcDbLine
 10
26.02000527589547
 20
87.37999639488604
 30
0.0
 11
24.31000527589549
 21
88.94999639488606
 31
0.0
  0
LINE
  5
1B8
330
8A
100
AcDbEntity
  8
0
 62
     9
370
    15
100
AcDbLine
 10
27.75000527589549
 20
85.85999639488607
 30
0.0
 11
26.02000527589547
 21
87.37999639488604
 31
0.0
  0
LINE
  5
1B9
330
8A
100
AcDbEntity
  8
0
 62
     9
370
    15
100
AcDbLine
 10
29.51000527589548
 20
84.38999639488612
 30
0.0
 11
27.75000527589549
 21
85.85999639488607
 31
0.0
  0
LINE
  5
1BA
330
8A
100
AcDbEntity
  8
0
 62
     9
370
    15
100
AcDbLine
 10
31.29000527589551
 20
82.96999639488609
 30
0.0
 11
29.51000527589548
 21
84.38999639488612
 31
0.0
  0
LINE
  5
1BB
330
8A
100
AcDbEntity
  8
0
 62
     9
370
    15
100
AcDbLine
 10
33.10000527589546
 20
81.59999639488608
 30
0.0
 11
31.29000527589551
 21
82.96999639488609
 31
0.0
  0
LINE
  5
1BC
330
8A
100
AcDbEntity
  8
0
 62
     9
370
    15
100
AcDbLine
 10
34.93000527589551
 20
80.2799963948861
 30
0.0
 11
33.10000527589546
 21
81.59999639488608
 31
0.0
  0
LINE
  5
1BD
330
8A
100
AcDbEntity
  8
0
 62
     9
370
    15
100
AcDbLine
 10
36.78000527589553
 20
79.00999639488606
 30
0.0
 11
34.93000527589551
 21
80.2799963948861
 31
0.0
  0
CIRCLE
  5
1BE
330
8A
100
AcDbEntity
  8
0
 62
     7
370
    15
100
AcDbCircle
 10
36.78000527589553
 20
79.00999639488606
 30
0.0
 40
1.0
  0
LINE
  5
1BF
330
8A
100
AcDbEntity
  8
0
 62
     9
370
    15
100
AcDbLine
 10
38.65000527589547
 20
77.77999639488609
 30
0.0
 11
36.78000527589553
 21
79.00999639488606
 31
0.0
  0
LINE
  5
1C0
330
8A
100
AcDbEntity
  8
0
 62
     9
370
    15
100
AcDbLine
 10
40.53000527589552
 20
76.59999639488609
 30
0.0
 11
38.65000527589547
 21
77.77999639488609
 31
0.0
  0
LINE
  5
1C1
330
8A
100
AcDbEntity
  8
0
 62
     9
370
    15
100
AcDbLine
 10
42.44000527589547
 20
75.4699963948861
 30
0.0
 11
40.53000527589552
 21
76.59999639488609
 31
0.0
  0
LINE
  5
1C2
330
8A
100
AcDbEntity
  8
0
 62
     9
370
    15
100
AcDbLine
 10
44.3600052758955
 20
74.37999639488606
 30
0.0
 11
42.44000527589547
 21
75.4699963948861
 31
0.0
  0
LINE
  5
1C3
330
8A
100
AcDbEntity
  8
0
 62
     9
370
    15
100
AcDbLine
 10
46.29000527589551
 20
73.32999639488605
 30
0.0
 11
44.3600052758955
 21
74.37999639488606
 31
0.0
  0
LINE
  5
1C4
330
8A
100
AcDbEntity
  8
0
 62
     9
370
    15
100
AcDbLine
 10
48.2400052758955
 20
72.31999639488606
 30
0.0
 11
46.29000527589551
 21
73.32999639488605
 31
0.0
  0
LINE
  5
1C5
330
8A
100
AcDbEntity
  8
0
 62
     9
370
    15
100
AcDbLine
 10
50.21000527589547
 20
71.35999639488606
 30
0.0
 11
48.2400052758955
 21
72.31999639488606
 31
0.0
  0
LINE
  5
1C6
330
8A
100
AcDbEntity
  8
0
 62
     9
370
    15
100
AcDbLine
 10
52.19000527589549
 20
70.43999639488607
 30
0.0
 11
50.21000527589547
 21
71.35999639488606
 31
0.0
  0
CIRCLE
  5
1C7
330
8A
100
AcDbEntity
  8
0
 62
     7
370
    15
100
AcDbCircle
 10
52.19000527589549
 20
70.43999639488607
 30
0.0
 40
1.0
  0
LINE
  5
1C8
330
8A
100
AcDbEntity
  8
0
 62
     9
370
    15
100
AcDbLine
 10
54.18000527589549
 20
69.56999639488606
 30
0.0
 11
52.19000527589549
 21
70.43999639488607
 31
0.0
  0
LINE
  5
1C9
330
8A
100
AcDbEntity
  8
0
 62
     9
370
    15
100
AcDbLine
 10
56.18000527589551
 20
68.72999639488607
 30
0.0
 11
54.18000527589549
 21
69.56999639488606
 31
0.0
  0
LINE
  5
1CA
330
8A
100
AcDbEntity
  8
0
 62
     9
370
    15
100
AcDbLine
 10
58.19000527589547
 20
67.92999639488607
 30
0.0
 11
56.18000527589551
 21
68.72999639488607
 31
0.0
  0
LINE
  5
1CB
330
8A
100
AcDbEntity
  8
0
 62
     9
370
    15
100
AcDbLine
 10
60.21000527589547
 20
67.17999639488607
 30
0.0
 11
58.19000527589547
 21
67.92999639488607
 31
0.0
  0
LINE
  5
1CC
330
8A
100
AcDbEntity
  8
0
 62
     9
370
    15
100
AcDbLine
 10
62.2400052758955
 20
66.45999639488604
 30
0.0
 11
60.21000527589547
 21
67.17999639488607
 31
0.0
  0
LINE
  5
1CD
330
8A
100
AcDbEntity
  8
0
 62
     9
370
    15
100
AcDbLine
 10
64.28000527589552
 20
65.77999639488609
 30
0.0
 11
62.2400052758955
 21
66.45999639488604
 31
0.0
  0
LINE
  5
1CE
330
8A
100
AcDbEntity
  8
0
 62
     9
370
    15
100
AcDbLine
 10
66.33000527589548
 20
65.13999639488611
 30
0.0
 11
64.28000527589552
 21
65.77999639488609
 31
0.0
  0
LINE
  5
1CF
330
8A
100
AcDbEntity
  8
0
 62
     9
370
    15
100
AcDbLine
 10
68.39000527589547
 20
64.53999639488609
 30
0.0
 11
66.33000527589548
 21
65.13999639488611
 31
0.0
  0
CIRCLE
  5
1D0
330
8A
100
AcDbEntity
  8
0
 62
     7
370
    15
100
AcDbCircle
 10
68.39000527589547
 20
64.53999639488609
 30
0.0
 40
1.0
  0
LINE
  5
1D1
330
8A
100
AcDbEntity
  8
0
 62
     9
370
    15
100
AcDbLine
 10
70.45000527589547
 20
63.9799963948861
 30
0.0
 11
68.39000527589547
 21
64.53999639488609
 31
0.0
  0
LINE
  5
1D2
330
8A
100
AcDbEntity
  8
0
 62
     9
370
    15
100
AcDbLine
 10
72.52000527589547
 20
63.44999639488604
 30
0.0
 11
70.45000527589547
 21
63.9799963948861
 31
0.0
  0
LINE
  5
1D3
330
8A
100
AcDbEntity
  8
0
 62
     9
370
    15
100
AcDbLine
 10
74.60000527589546
 20
62.9699963948861
 30
0.0
 11
72.52000527589547
 21
63.44999639488604
 31
0.0
  0
LINE
  5
1D4
330
8A
100
AcDbEntity
  8
0
 62
     9
370
    15
100
AcDbLine
 10
76.68000527589548
 20
62.51999639488611
 30
0.0
 11
74.60000527589546
 21
62.9699963948861
 31
0.0
  0
LINE
  5
1D5
330
8A
100
AcDbEntity
  8
0
 62
     9
370
    15
100
AcDbLine
 10
78.77000527589547
 20
62.09999639488609
 30
0.0
 11
76.68000527589548
 21
62.51999639488611
 31
0.0
  0
LINE
  5
1D6
330
8A
100
AcDbEntity
  8
0
 62
     9
370
    15
100
AcDbLine
 10
80.86000527589552
 20
61.72999639488607
 30
0.0
 11
78.77000527589547
 21
62.09999639488609
 31
0.0
  0
LINE
  5
1D7
330
8A
100
AcDbEntity
  8
0
 62
     9
370
    15
100
AcDbLine
 10
82.96000527589546
 20
61.38999639488611
 30
0.0
 11
80.86000527589552
 21
61.72999639488607
 31
0.0
  0
LINE
  5
1D8
330
8A
100
AcDbEntity
  8
0
 62
     9
370
    15
100
AcDbLine
 10
85.06000527589547
 20
61.07999639488604
 30
0.0
 11
82.96000527589546
 21
61.38999639488611
 31
0.0
  0
CIRCLE
  5
1D9
330
8A
100
AcDbEntity
  8
0
 62
     7
370
    15
100
AcDbCircle
 10
85.06000527589547
 20
61.07999639488604
 30
0.0
 40
1.0
  0
LINE
  5
1DA
330
8A
100
AcDbEntity
  8
0
 62
     9
370
    15
100
AcDbLine
 10
87.16000527589551
 20
60.80999639488608
 30
0.0
 11
85.06000527589547
 21
61.07999639488604
 31
0.0
  0
LINE
  5
1DB
330
8A
100
AcDbEntity
  8
0
 62
     9
370
    15
100
AcDbLine
 10
89.27000527589546
 20
60.57999639488604
 30
0.0
 11
87.16000527589551
 21
60.80999639488608
 31
0.0
  0
LINE
  5
1DC
330
8A
100
AcDbEntity
  8
0
 62
     9
370
    15
100
AcDbLine
 10
91.37000527589547
 20
60.38999639488611
 30
0.0
 11
89.27000527589546
 21
60.57999639488604
 31
0.0
  0
LINE
  5
1DD
330
8A
100
AcDbEntity
  8
0
 62
     9
370
    15
100
AcDbLine
 10
93.4900052758955
 20
60.2299963948861
 30
0.0
 11
91.37000527589547
 21
60.38999639488611
 31
0.0
  0
LINE
  5
1DE
330
8A
100
AcDbEntity
  8
0
 62
     9
370
    15
100
AcDbLine
 10
95.60000527589544
 20
60.09999639488609
 30
0.0
 11
93.4900052758955
 21
60.2299963948861
 31
0.0
  0
LINE
  5
1DF
330
8A
100
AcDbEntity
  8
0
 62
     9
370
    15
100
AcDbLine
 10
97.71000527589549
 20
60.00999639488607
 30
0.0
 11
95.60000527589544
 21
60.09999639488609
 31
0.0
  0
LINE
  5
1E0
330
8A
100
AcDbEntity
  8
0
 62
     9
370
    15
100
AcDbLine
 10
99.83000527589549
 20
59.95999639488605
 30
0.0
 11
97.71000527589549
 21
60.00999639488607
 31
0.0
  0
LINE
  5
1E1
330
8A
100
AcDbEntity
  8
0
 62
     9
370
    15
100
AcDbLine
 10
101.9400052758955
 20
59.93999639488606
 30
0.0
 11
99.83000527589549
 21
59.95999639488605
 31
0.0
  0
CIRCLE
  5
1E2
330
8A
100
AcDbEntity
  8
0
 62
     7
370
    15
100
AcDbCircle
 10
101.9400052758955
 20
59.93999639488606
 30
0.0
 40
1.0
  0
LINE
  5
1E3
330
8A
100
AcDbEntity
  8
0
 62
     9
370
    15
100
AcDbLine
 10
104.0500052758955
 20
59.95999639488605
 30
0.0
 11
101.9400052758955
 21
59.93999639488606
 31
0.0
  0
LINE
  5
1E4
330
8A
100
AcDbEntity
  8
0
 62
     9
370
    15
100
AcDbLine
 10
106.1700052758955
 20
60.00999639488607
 30
0.0
 11
104.0500052758955
 21
59.95999639488605
 31
0.0
  0
LINE
  5
1E5
330
8A
100
AcDbEntity
  8
0
 62
     9
370
    15
100
AcDbLine
 10
108.2800052758955
 20
60.09999639488609
 30
0.0
 11
106.1700052758955
 21
60.00999639488607
 31
0.0
  0
LINE
  5
1E6
330
8A
100
AcDbEntity
  8
0
 62
     9
370
    15
100
AcDbLine
 10
110.3900052758955
 20
60.2299963948861
 30
0.0
 11
108.2800052758955
 21
60.09999639488609
 31
0.0
  0
LINE
  5
1E7
330
8A
100
AcDbEntity
  8
0
 62
     9
370
    15
100
AcDbLine
 10
112.5100052758954
 20
60.38999639488611
 30
0.0
 11
110.3900052758955
 21
60.2299963948861
 31
0.0
  0
LINE
  5
1E8
330
8A
100
AcDbEntity
  8
0
 62
     9
370
    15
100
AcDbLine
 10
114.6100052758955
 20
60.57999639488604
 30
0.0
 11
112.5100052758954
 21
60.38999639488611
 31
0.0
  0
LINE
  5
1E9
330
8A
100
AcDbEntity
  8
0
 62
     9
370
    15
100
AcDbLine
 10
116.7200052758954
 20
60.80999639488608
 30
0.0
 11
114.6100052758955
 21
60.57999639488604
 31
0.0
  0
LINE
  5
1EA
330
8A
100
AcDbEntity
  8
0
 62
     9
370
    15
100
AcDbLine
 10
118.8200052758955
 20
61.07999639488604
 30
0.0
 11
116.7200052758954
 21
60.80999639488608
 31
0.0
  0
CIRCLE
  5
1EB
330
8A
100
AcDbEntity
  8
0
 62
     7
370
    15
100
AcDbCircle
 10
118.8200052758955
 20
61.07999639488604
 30
0.0
 40
1.0
  0
LINE
  5
1EC
330
8A
100
AcDbEntity
  8
0
 62
     9
370
    15
100
AcDbLine
 10
120.9200052758955
 20
61.38999639488611
 30
0.0
 11
118.8200052758955
 21
61.07999639488604
 31
0.0
  0
LINE
  5
1ED
330
8A
100
AcDbEntity
  8
0
 62
     9
370
    15
100
AcDbLine
 10
123.0200052758954
 20
61.72999639488607
 30
0.0
 11
120.9200052758955
 21
61.38999639488611
 31
0.0
  0
LINE
  5
1EE
330
8A
100
AcDbEntity
  8
0
 62
     9
370
    15
100
AcDbLine
 10
125.1100052758954
 20
62.09999639488609
 30
0.0
 11
123.0200052758954
 21
61.72999639488607
 31
0.0
  0
LINE
  5
1EF
330
8A
100
AcDbEntity
  8
0
 62
     9
370
    15
100
AcDbLine
 10
127.2000052758955
 20
62.51999639488611
 30
0.0
 11
125.1100052758954
 21
62.09999639488609
 31
0.0
  0
LINE
  5
1F0
330
8A
100
AcDbEntity
  8
0
 62
     9
370
    15
100
AcDbLine
 10
129.2800052758955
 20
62.9699963948861
 30
0.0
 11
127.2000052758955
 21
62.51999639488611
 31
0.0
  0
LINE
  5
1F1
330
8A
100
AcDbEntity
  8
0
 62
     9
370
    15
100
AcDbLine
 10
131.3600052758954
 20
63.44999639488604
 30
0.0
 11
129.2800052758955
 21
62.9699963948861
 31
0.0
  0
LINE
  5
1F2
330
8A
100
AcDbEntity
  8
0
 62
     9
370
    15
100
AcDbLine
 10
133.4300052758955
 20
63.9799963948861
 30
0.0
 11
131.3600052758954
 21
63.44999639488604
 31
0.0
  0
LINE
  5
1F3
330
8A
100
AcDbEntity
  8
0
 62
     9
370
    15
100
AcDbLine
 10
135.4900052758955
 20
64.53999639488609
 30
0.0
 11
133.4300052758955
 21
63.9799963948861
 31
0.0
  0
CIRCLE
  5
1F4
330
8A
100
AcDbEntity
  8
0
 62
     7
370
    15
100
AcDbCircle
 10
135.4900052758955
 20
64.53999639488609
 30
0.0
 40
1.0
  0
LINE
  5
1F5
330
8A
100
AcDbEntity
  8
0
 62
     9
370
    15
100
AcDbLine
 10
137.5500052758955
 20
65.13999639488611
 30
0.0
 11
135.4900052758955
 21
64.53999639488609
 31
0.0
  0
LINE
  5
1F6
330
8A
100
AcDbEntity
  8
0
 62
     9
370
    15
100
AcDbLine
 10
139.6000052758954
 20
65.77999639488609
 30
0.0
 11
137.5500052758955
 21
65.13999639488611
 31
0.0
  0
LINE
  5
1F7
330
8A
100
AcDbEntity
  8
0
 62
     9
370
    15
100
AcDbLine
 10
141.6400052758955
 20
66.45999639488604
 30
0.0
 11
139.6000052758954
 21
65.77999639488609
 31
0.0
  0
LINE
  5
1F8
330
8A
100
AcDbEntity
  8
0
 62
     9
370
    15
100
AcDbLine
 10
143.6700052758955
 20
67.17999639488607
 30
0.0
 11
141.6400052758955
 21
66.45999639488604
 31
0.0
  0
LINE
  5
1F9
330
8A
100
AcDbEntity
  8
0
 62
     9
370
    15
100
AcDbLine
 10
145.6900052758955
 20
67.92999639488607
 30
0.0
 11
143.6700052758955
 21
67.17999639488607
 31
0.0
  0
LINE
  5
1FA
330
8A
100
AcDbEntity
  8
0
 62
     9
370
    15
100
AcDbLine
 10
147.7000052758955
 20
68.72999639488607
 30
0.0
 11
145.6900052758955
 21
67.92999639488607
 31
0.0
  0
LINE
  5
1FB
330
8A
100
AcDbEntity
  8
0
 62
     9
370
    15
100
AcDbLine
 10
149.7000052758955
 20
69.56999639488606
 30
0.0
 11
147.7000052758955
 21
68.72999639488607
 31
0.0
  0
LINE
  5
1FC
330
8A
100
AcDbEntity
  8
0
 62
     9
370
    15
100
AcDbLine
 10
151.6900052758955
 20
70.43999639488607
 30
0.0
 11
149.7000052758955
 21
69.56999639488606
 31
0.0
  0
CIRCLE
  5
1FD
330
8A
100
AcDbEntity
  8
0
 62
     7
370
    15
100
AcDbCircle
 10
151.6900052758955
 20
70.43999639488607
 30
0.0
 40
1.0
  0
LINE
  5
1FE
330
8A
100
AcDbEntity
  8
0
 62
     9
370
    15
100
AcDbLine
 10
153.6700052758954
 20
71.35999639488606
 30
0.0
 11
151.6900052758955
 21
70.43999639488607
 31
0.0
  0
LINE
  5
1FF
330
8A
100
AcDbEntity
  8
0
 62
     9
370
    15
100
AcDbLine
 10
155.6400052758954
 20
72.31999639488606
 30
0.0
 11
153.6700052758954
 21
71.35999639488606
 31
0.0
  0
LINE
  5
200
330
8A
100
AcDbEntity
  8
0
 62
     9
370
    15
100
AcDbLine
 10
157.5900052758955
 20
73.32999639488605
 30
0.0
 11
155.6400052758954
 21
72.31999639488606
 31
0.0
  0
LINE
  5
201
330
8A
100
AcDbEntity
  8
0
 62
     9
370
    15
100
AcDbLine
 10
159.5200052758955
 20
74.37999639488606
 30
0.0
 11
157.5900052758955
 21
73.32999639488605
 31
0.0
  0
LINE
  5
202
330
8A
100
AcDbEntity
  8
0
 62
     9
370
    15
100
AcDbLine
 10
161.4400052758955
 20
75.4699963948861
 30
0.0
 11
159.5200052758955
 21
74.37999639488606
 31
0.0
  0
LINE
  5
203
330
8A
100
AcDbEntity
  8
0
 62
     9
370
    15
100
AcDbLine
 10
163.3500052758955
 20
76.59999639488609
 30
0.0
 11
161.4400052758955
 21
75.4699963948861
 31
0.0
  0
LINE
  5
204
330
8A
100
AcDbEntity
  8
0
 62
     9
370
    15
100
AcDbLine
 10
165.2300052758955
 20
77.77999639488609
 30
0.0
 11
163.3500052758955
 21
76.59999639488609
 31
0.0
  0
LINE
  5
205
330
8A
100
AcDbEntity
  8
0
 62
     9
370
    15
100
AcDbLine
 10
167.1000052758954
 20
79.00999639488606
 30
0.0
 11
165.2300052758955
 21
77.77999639488609
 31
0.0
  0
CIRCLE
  5
206
330
8A
100
AcDbEntity
  8
0
 62
     7
370
    15
100
AcDbCircle
 10
167.1000052758954
 20
79.00999639488606
 30
0.0
 40
1.0
  0
LINE
  5
207
330
8A
100
AcDbEntity
  8
0
 62
     9
370
    15
100
AcDbLine
 10
168.9500052758955
 20
80.2799963948861
 30
0.0
 11
167.1000052758954
 21
79.00999639488606
 31
0.0
  0
LINE
  5
208
330
8A
100
AcDbEntity
  8
0
 62
     9
370
    15
100
AcDbLine
 10
170.7800052758955
 20
81.59999639488608
 30
0.0
 11
168.9500052758955
 21
80.2799963948861
 31
0.0
  0
LINE
  5
209
330
8A
100
AcDbEntity
  8
0
 62
     9
370
    15
100
AcDbLine
 10
172.5900052758955
 20
82.96999639488609
 30
0.0
 11
170.7800052758955
 21
81.59999639488608
 31
0.0
  0
LINE
  5
20A
330
8A
100
AcDbEntity
  8
0
 62
     9
370
    15
100
AcDbLine
 10
174.3700052758955
 20
84.38999639488612
 30
0.0
 11
172.5900052758955
 21
82.96999639488609
 31
0.0
  0
LINE
  5
20B
330
8A
100
AcDbEntity
  8
0
 62
     9
370
    15
100
AcDbLine
 10
176.1300052758955
 20
85.85999639488607
 30
0.0
 11
174.3700052758955
 21
84.38999639488612
 31
0.0
  0
LINE
  5
20C
330
8A
100
AcDbEntity
  8
0
 62
     9
370
    15
100
AcDbLine
 10
177.8600052758954
 20
87.37999639488604
 30
0.0
 11
176.1300052758955
 21
85.85999639488607
 31
0.0
  0
LINE
  5
20D
330
8A
100
AcDbEntity
  8
0
 62
     9
370
    15
100
AcDbLine
 10
179.5700052758955
 20
88.94999639488606
 30
0.0
 11
177.8600052758954
 21
87.37999639488604
 31
0.0
  0
LINE
  5
20E
330
8A
100
AcDbEntity
  8
0
 62
     9
370
    15
100
AcDbLine
 10
181.2400052758955
 20
90.56999639488607
 30
0.0
 11
179.5700052758955
 21
88.94999639488606
 31
0.0
  0
CIRCLE
  5
20F
330
8A
100
AcDbEntity
  8
0
 62
     7
370
    15
100
AcDbCircle
 10
181.2400052758955
 20
90.56999639488607
 30
0.0
 40
1.0
  0
LINE
  5
210
330
8A
100
AcDbEntity
  8
0
 62
     9
370
    15
100
AcDbLine
 10
182.8900052758955
 20
92.24999639488606
 30
0.0
 11
181.2400052758955
 21
90.56999639488607
 31
0.0
  0
LINE
  5
211
330
8A
100
AcDbEntity
  8
0
 62
     9
370
    15
100
AcDbLine
 10
184.5000052758955
 20
93.97999639488608
 30
0.0
 11
182.8900052758955
 21
92.24999639488606
 31
0.0
  0
LINE
  5
212
330
8A
100
AcDbEntity
  8
0
 62
     9
370
    15
100
AcDbLine
 10
186.0800052758954
 20
95.75999639488605
 30
0.0
 11
184.5000052758955
 21
93.97999639488608
 31
0.0
  0
LINE
  5
213
330
8A
100
AcDbEntity
  8
0
 62
     9
370
    15
100
AcDbLine
 10
187.6300052758955
 20
97.60999639488607
 30
0.0
 11
186.0800052758954
 21
95.75999639488605
 31
0.0
  0
LINE
  5
214
330
8A
100
AcDbEntity
  8
0
 62
     9
370
    15
100
AcDbLine
 10
189.1300052758955
 20
99.50999639488607
 30
0.0
 11
187.6300052758955
 21
97.60999639488607
 31
0.0
  0
LINE
  5
215
330
8A
100
AcDbEntity
  8
0
 62
     9
370
    15
100
AcDbLine
 10
190.5900052758955
 20
101.4699963948861
 30
0.0
 11
189.1300052758955
 21
99.50999639488607
 31
0.0
  0
LINE
  5
216
330
8A
100
AcDbEntity
  8
0
 62
     9
370
    15
100
AcDbLine
 10
192.0100052758955
 20
103.489996394886
 30
0.0
 11
190.5900052758955
 21
101.4699963948861
 31
0.0
  0
LINE
  5
217
330
8A
100
AcDbEntity
  8
0
 62
     9
370
    15
100
AcDbLine
 10
193.2400052758955
 20
105.3499963948861
 30
0.0
 11
192.0100052758955
 21
103.489996394886
 31
0.0
  0
MTEXT
  5
218
330
8A
100
AcDbEntity
  8
0
 62
     9
100
AcDbMText
 10
8.51000527589548
 20
130.999996394886
 30
0.0
 40
3.5
 41
0.0
 71
     1
 72
     1
  1
C
  7
Geneva
 73
     1
 44
1.0
1001
ACAD
1000
MTEXTBEGIN
1070
    73
1070
     1
1070
    44
1040
1.0
1070
    74
1070
     0
1000
MTEXTEND
  0
LINE
  5
219
330
8A
100
AcDbEntity
  8
0
 62
     9
370
    15
100
AcDbLine
 10
14.77000527589547
 20
131.1399963948861
 30
0.0
 11
14.51000527589548
 21
132.0999963948861
 31
0.0
  0
LINE
  5
21A
330
8A
100
AcDbEntity
  8
0
 62
     9
370
    15
100
AcDbLine
 10
15.46000527589547
 20
128.7899963948861
 30
0.0
 11
14.77000527589547
 21
131.1399963948861
 31
0.0
  0
LINE
  5
21B
330
8A
100
AcDbEntity
  8
0
 62
     9
370
    15
100
AcDbLine
 10
16.22000527589546
 20
126.499996394886
 30
0.0
 11
15.46000527589547
 21
128.7899963948861
 31
0.0
  0
LINE
  5
21C
330
8A
100
AcDbEntity
  8
0
 62
     9
370
    15
100
AcDbLine
 10
17.0500052758955
 20
124.259996394886
 30
0.0
 11
16.22000527589546
 21
126.499996394886
 31
0.0
  0
LINE
  5
21D
330
8A
100
AcDbEntity
  8
0
 62
     9
370
    15
100
AcDbLine
 10
17.95000527589548
 20
122.079996394886
 30
0.0
 11
17.0500052758955
 21
124.259996394886
 31
0.0
  0
LINE
  5
21E
330
8A
100
AcDbEntity
  8
0
 62
     9
370
    15
100
AcDbLine
 10
18.91000527589551
 20
119.949996394886
 30
0.0
 11
17.95000527589548
 21
122.079996394886
 31
0.0
  0
LINE
  5
21F
330
8A
100
AcDbEntity
  8
0
 62
     9
370
    15
100
AcDbLine
 10
19.9200052758955
 20
117.869996394886
 30
0.0
 11
18.91000527589551
 21
119.949996394886
 31
0.0
  0
CIRCLE
  5
220
330
8A
100
AcDbEntity
  8
0
 62
     7
370
    15
100
AcDbCircle
 10
19.9200052758955
 20
117.869996394886
 30
0.0
 40
1.0
  0
LINE
  5
221
330
8A
100
AcDbEntity
  8
0
 62
     9
370
    15
100
AcDbLine
 10
20.9900052758955
 20
115.8399963948861
 30
0.0
 11
19.9200052758955
 21
117.869996394886
 31
0.0
  0
LINE
  5
222
330
8A
100
AcDbEntity
  8
0
 62
     9
370
    15
100
AcDbLine
 10
22.11000527589551
 20
113.8699963948861
 30
0.0
 11
20.9900052758955
 21
115.8399963948861
 31
0.0
  0
LINE
  5
223
330
8A
100
AcDbEntity
  8
0
 62
     9
370
    15
100
AcDbLine
 10
23.29000527589551
 20
111.949996394886
 30
0.0
 11
22.11000527589551
 21
113.8699963948861
 31
0.0
  0
LINE
  5
224
330
8A
100
AcDbEntity
  8
0
 62
     9
370
    15
100
AcDbLine
 10
24.51000527589548
 20
110.079996394886
 30
0.0
 11
23.29000527589551
 21
111.949996394886
 31
0.0
  0
LINE
  5
225
330
8A
100
AcDbEntity
  8
0
 62
     9
370
    15
100
AcDbLine
 10
25.77000527589547
 20
108.2699963948861
 30
0.0
 11
24.51000527589548
 21
110.079996394886
 31
0.0
  0
LINE
  5
226
330
8A
100
AcDbEntity
  8
0
 62
     9
370
    15
100
AcDbLine
 10
27.08000527589547
 20
106.499996394886
 30
0.0
 11
25.77000527589547
 21
108.2699963948861
 31
0.0
  0
LINE
  5
227
330
8A
100
AcDbEntity
  8
0
 62
     9
370
    15
100
AcDbLine
 10
28.4300052758955
 20
104.7899963948861
 30
0.0
 11
27.08000527589547
 21
106.499996394886
 31
0.0
  0
LINE
  5
228
330
8A
100
AcDbEntity
  8
0
 62
     9
370
    15
100
AcDbLine
 10
29.82000527589548
 20
103.119996394886
 30
0.0
 11
28.4300052758955
 21
104.7899963948861
 31
0.0
  0
CIRCLE
  5
229
330
8A
100
AcDbEntity
  8
0
 62
     7
370
    15
100
AcDbCircle
 10
29.82000527589548
 20
103.119996394886
 30
0.0
 40
1.0
  0
LINE
  5
22A
330
8A
100
AcDbEntity
  8
0
 62
     9
370
    15
100
AcDbLine
 10
31.2400052758955
 20
101.509996394886
 30
0.0
 11
29.82000527589548
 21
103.119996394886
 31
0.0
  0
LINE
  5
22B
330
8A
100
AcDbEntity
  8
0
 62
     9
370
    15
100
AcDbLine
 10
32.70000527589548
 20
99.93999639488606
 30
0.0
 11
31.2400052758955
 21
101.509996394886
 31
0.0
  0
LINE
  5
22C
330
8A
100
AcDbEntity
  8
0
 62
     9
370
    15
100
AcDbLine
 10
34.19000527589549
 20
98.41999639488607
 30
0.0
 11
32.70000527589548
 21
99.93999639488606
 31
0.0
  0
LINE
  5
22D
330
8A
100
AcDbEntity
  8
0
 62
     9
370
    15
100
AcDbLine
 10
35.71000527589547
 20
96.94999639488607
 30
0.0
 11
34.19000527589549
 21
98.41999639488607
 31
0.0
  0
LINE
  5
22E
330
8A
100
AcDbEntity
  8
0
 62
     9
370
    15
100
AcDbLine
 10
37.27000527589547
 20
95.52999639488607
 30
0.0
 11
35.71000527589547
 21
96.94999639488607
 31
0.0
  0
LINE
  5
22F
330
8A
100
AcDbEntity
  8
0
 62
     9
370
    15
100
AcDbLine
 10
38.85000527589546
 20
94.14999639488613
 30
0.0
 11
37.27000527589547
 21
95.52999639488607
 31
0.0
  0
LINE
  5
230
330
8A
100
AcDbEntity
  8
0
 62
     9
370
    15
100
AcDbLine
 10
40.46000527589547
 20
92.81999639488606
 30
0.0
 11
38.85000527589546
 21
94.14999639488613
 31
0.0
  0
LINE
  5
231
330
8A
100
AcDbEntity
  8
0
 62
     9
370
    15
100
AcDbLine
 10
42.09000527589546
 20
91.5299963948861
 30
0.0
 11
40.46000527589547
 21
92.81999639488606
 31
0.0
  0
CIRCLE
  5
232
330
8A
100
AcDbEntity
  8
0
 62
     7
370
    15
100
AcDbCircle
 10
42.09000527589546
 20
91.5299963948861
 30
0.0
 40
1.0
  0
LINE
  5
233
330
8A
100
AcDbEntity
  8
0
 62
     9
370
    15
100
AcDbLine
 10
43.75000527589548
 20
90.28999639488608
 30
0.0
 11
42.09000527589546
 21
91.5299963948861
 31
0.0
  0
LINE
  5
234
330
8A
100
AcDbEntity
  8
0
 62
     9
370
    15
100
AcDbLine
 10
45.43000527589549
 20
89.09999639488608
 30
0.0
 11
43.75000527589548
 21
90.28999639488608
 31
0.0
  0
LINE
  5
235
330
8A
100
AcDbEntity
  8
0
 62
     9
370
    15
100
AcDbLine
 10
47.13000527589549
 20
87.94999639488606
 30
0.0
 11
45.43000527589549
 21
89.09999639488608
 31
0.0
  0
LINE
  5
236
330
8A
100
AcDbEntity
  8
0
 62
     9
370
    15
100
AcDbLine
 10
48.85000527589546
 20
86.83999639488609
 30
0.0
 11
47.13000527589549
 21
87.94999639488606
 31
0.0
  0
LINE
  5
237
330
8A
100
AcDbEntity
  8
0
 62
     9
370
    15
100
AcDbLine
 10
50.60000527589545
 20
85.77999639488609
 30
0.0
 11
48.85000527589546
 21
86.83999639488609
 31
0.0
  0
LINE
  5
238
330
8A
100
AcDbEntity
  8
0
 62
     9
370
    15
100
AcDbLine
 10
52.3600052758955
 20
84.75999639488604
 30
0.0
 11
50.60000527589545
 21
85.77999639488609
 31
0.0
  0
LINE
  5
239
330
8A
100
AcDbEntity
  8
0
 62
     9
370
    15
100
AcDbLine
 10
54.14000527589546
 20
83.7799963948861
 30
0.0
 11
52.3600052758955
 21
84.75999639488604
 31
0.0
  0
LINE
  5
23A
330
8A
100
AcDbEntity
  8
0
 62
     9
370
    15
100
AcDbLine
 10
55.93000527589548
 20
82.83999639488611
 30
0.0
 11
54.14000527589546
 21
83.7799963948861
 31
0.0
  0
CIRCLE
  5
23B
330
8A
100
AcDbEntity
  8
0
 62
     7
370
    15
100
AcDbCircle
 10
55.93000527589548
 20
82.83999639488611
 30
0.0
 40
1.0
  0
LINE
  5
23C
330
8A
100
AcDbEntity
  8
0
 62
     9
370
    15
100
AcDbLine
 10
57.74000527589549
 20
81.93999639488607
 30
0.0
 11
55.93000527589548
 21
82.83999639488611
 31
0.0
  0
LINE
  5
23D
330
8A
100
AcDbEntity
  8
0
 62
     9
370
    15
100
AcDbLine
 10
59.56000527589549
 20
81.0899963948861
 30
0.0
 11
57.74000527589549
 21
81.93999639488607
 31
0.0
  0
LINE
  5
23E
330
8A
100
AcDbEntity
  8
0
 62
     9
370
    15
100
AcDbLine
 10
61.40000527589545
 20
80.26999639488611
 30
0.0
 11
59.56000527589549
 21
81.0899963948861
 31
0.0
  0
LINE
  5
23F
330
8A
100
AcDbEntity
  8
0
 62
     9
370
    15
100
AcDbLine
 10
63.25000527589549
 20
79.49999639488606
 30
0.0
 11
61.40000527589545
 21
80.26999639488611
 31
0.0
  0
LINE
  5
240
330
8A
100
AcDbEntity
  8
0
 62
     9
370
    15
100
AcDbLine
 10
65.12000527589549
 20
78.76999639488611
 30
0.0
 11
63.25000527589549
 21
79.49999639488606
 31
0.0
  0
LINE
  5
241
330
8A
100
AcDbEntity
  8
0
 62
     9
370
    15
100
AcDbLine
 10
66.9900052758955
 20
78.06999639488606
 30
0.0
 11
65.12000527589549
 21
78.76999639488611
 31
0.0
  0
LINE
  5
242
330
8A
100
AcDbEntity
  8
0
 62
     9
370
    15
100
AcDbLine
 10
68.88000527589548
 20
77.41999639488607
 30
0.0
 11
66.9900052758955
 21
78.06999639488606
 31
0.0
  0
LINE
  5
243
330
8A
100
AcDbEntity
  8
0
 62
     9
370
    15
100
AcDbLine
 10
70.77000527589547
 20
76.79999639488608
 30
0.0
 11
68.88000527589548
 21
77.41999639488607
 31
0.0
  0
CIRCLE
  5
244
330
8A
100
AcDbEntity
  8
0
 62
     7
370
    15
100
AcDbCircle
 10
70.77000527589547
 20
76.79999639488608
 30
0.0
 40
1.0
  0
LINE
  5
245
330
8A
100
AcDbEntity
  8
0
 62
     9
370
    15
100
AcDbLine
 10
72.68000527589548
 20
76.2199963948861
 30
0.0
 11
70.77000527589547
 21
76.79999639488608
 31
0.0
  0
LINE
  5
246
330
8A
100
AcDbEntity
  8
0
 62
     9
370
    15
100
AcDbLine
 10
74.59000527589545
 20
75.67999639488608
 30
0.0
 11
72.68000527589548
 21
76.2199963948861
 31
0.0
  0
LINE
  5
247
330
8A
100
AcDbEntity
  8
0
 62
     9
370
    15
100
AcDbLine
 10
76.51000527589548
 20
75.17999639488606
 30
0.0
 11
74.59000527589545
 21
75.67999639488608
 31
0.0
  0
LINE
  5
248
330
8A
100
AcDbEntity
  8
0
 62
     9
370
    15
100
AcDbLine
 10
78.44000527589549
 20
74.71999639488609
 30
0.0
 11
76.51000527589548
 21
75.17999639488606
 31
0.0
  0
LINE
  5
249
330
8A
100
AcDbEntity
  8
0
 62
     9
370
    15
100
AcDbLine
 10
80.38000527589549
 20
74.29999639488608
 30
0.0
 11
78.44000527589549
 21
74.71999639488609
 31
0.0
  0
LINE
  5
24A
330
8A
100
AcDbEntity
  8
0
 62
     9
370
    15
100
AcDbLine
 10
82.32000527589548
 20
73.90999639488609
 30
0.0
 11
80.38000527589549
 21
74.29999639488608
 31
0.0
  0
LINE
  5
24B
330
8A
100
AcDbEntity
  8
0
 62
     9
370
    15
100
AcDbLine
 10
84.27000527589546
 20
73.55999639488607
 30
0.0
 11
82.32000527589548
 21
73.90999639488609
 31
0.0
  0
LINE
  5
24C
330
8A
100
AcDbEntity
  8
0
 62
     9
370
    15
100
AcDbLine
 10
86.22000527589547
 20
73.24999639488606
 30
0.0
 11
84.27000527589546
 21
73.55999639488607
 31
0.0
  0
CIRCLE
  5
24D
330
8A
100
AcDbEntity
  8
0
 62
     7
370
    15
100
AcDbCircle
 10
86.22000527589547
 20
73.24999639488606
 30
0.0
 40
1.0
  0
LINE
  5
24E
330
8A
100
AcDbEntity
  8
0
 62
     9
370
    15
100
AcDbLine
 10
88.1700052758955
 20
72.9699963948861
 30
0.0
 11
86.22000527589547
 21
73.24999639488606
 31
0.0
  0
LINE
  5
24F
330
8A
100
AcDbEntity
  8
0
 62
     9
370
    15
100
AcDbLine
 10
90.13000527589548
 20
72.72999639488609
 30
0.0
 11
88.1700052758955
 21
72.9699963948861
 31
0.0
  0
LINE
  5
250
330
8A
100
AcDbEntity
  8
0
 62
     9
370
    15
100
AcDbLine
 10
92.10000527589546
 20
72.5299963948861
 30
0.0
 11
90.13000527589548
 21
72.72999639488609
 31
0.0
  0
LINE
  5
251
330
8A
100
AcDbEntity
  8
0
 62
     9
370
    15
100
AcDbLine
 10
94.06000527589547
 20
72.36999639488606
 30
0.0
 11
92.10000527589546
 21
72.5299963948861
 31
0.0
  0
LINE
  5
252
330
8A
100
AcDbEntity
  8
0
 62
     9
370
    15
100
AcDbLine
 10
96.03000527589552
 20
72.23999639488607
 30
0.0
 11
94.06000527589547
 21
72.36999639488606
 31
0.0
  0
LINE
  5
253
330
8A
100
AcDbEntity
  8
0
 62
     9
370
    15
100
AcDbLine
 10
98.00000527589547
 20
72.14999639488609
 30
0.0
 11
96.03000527589552
 21
72.23999639488607
 31
0.0
  0
LINE
  5
254
330
8A
100
AcDbEntity
  8
0
 62
     9
370
    15
100
AcDbLine
 10
99.97000527589548
 20
72.0899963948861
 30
0.0
 11
98.00000527589547
 21
72.14999639488609
 31
0.0
  0
LINE
  5
255
330
8A
100
AcDbEntity
  8
0
 62
     9
370
    15
100
AcDbLine
 10
101.9400052758955
 20
72.06999639488606
 30
0.0
 11
99.97000527589548
 21
72.0899963948861
 31
0.0
  0
CIRCLE
  5
256
330
8A
100
AcDbEntity
  8
0
 62
     7
370
    15
100
AcDbCircle
 10
101.9400052758955
 20
72.06999639488606
 30
0.0
 40
1.0
  0
LINE
  5
257
330
8A
100
AcDbEntity
  8
0
 62
     9
370
    15
100
AcDbLine
 10
103.9100052758955
 20
72.0899963948861
 30
0.0
 11
101.9400052758955
 21
72.06999639488606
 31
0.0
  0
LINE
  5
258
330
8A
100
AcDbEntity
  8
0
 62
     9
370
    15
100
AcDbLine
 10
105.8800052758955
 20
72.14999639488609
 30
0.0
 11
103.9100052758955
 21
72.0899963948861
 31
0.0
  0
LINE
  5
259
330
8A
100
AcDbEntity
  8
0
 62
     9
370
    15
100
AcDbLine
 10
107.8500052758954
 20
72.23999639488607
 30
0.0
 11
105.8800052758955
 21
72.14999639488609
 31
0.0
  0
LINE
  5
25A
330
8A
100
AcDbEntity
  8
0
 62
     9
370
    15
100
AcDbLine
 10
109.8200052758955
 20
72.36999639488606
 30
0.0
 11
107.8500052758954
 21
72.23999639488607
 31
0.0
  0
LINE
  5
25B
330
8A
100
AcDbEntity
  8
0
 62
     9
370
    15
100
AcDbLine
 10
111.7800052758955
 20
72.5299963948861
 30
0.0
 11
109.8200052758955
 21
72.36999639488606
 31
0.0
  0
LINE
  5
25C
330
8A
100
AcDbEntity
  8
0
 62
     9
370
    15
100
AcDbLine
 10
113.7500052758955
 20
72.72999639488609
 30
0.0
 11
111.7800052758955
 21
72.5299963948861
 31
0.0
  0
LINE
  5
25D
330
8A
100
AcDbEntity
  8
0
 62
     9
370
    15
100
AcDbLine
 10
115.7100052758954
 20
72.9699963948861
 30
0.0
 11
113.7500052758955
 21
72.72999639488609
 31
0.0
  0
LINE
  5
25E
330
8A
100
AcDbEntity
  8
0
 62
     9
370
    15
100
AcDbLine
 10
117.6600052758955
 20
73.24999639488606
 30
0.0
 11
115.7100052758954
 21
72.9699963948861
 31
0.0
  0
CIRCLE
  5
25F
330
8A
100
AcDbEntity
  8
0
 62
     7
370
    15
100
AcDbCircle
 10
117.6600052758955
 20
73.24999639488606
 30
0.0
 40
1.0
  0
LINE
  5
260
330
8A
100
AcDbEntity
  8
0
 62
     9
370
    15
100
AcDbLine
 10
119.6100052758955
 20
73.55999639488607
 30
0.0
 11
117.6600052758955
 21
73.24999639488606
 31
0.0
  0
LINE
  5
261
330
8A
100
AcDbEntity
  8
0
 62
     9
370
    15
100
AcDbLine
 10
121.5600052758955
 20
73.90999639488609
 30
0.0
 11
119.6100052758955
 21
73.55999639488607
 31
0.0
  0
LINE
  5
262
330
8A
100
AcDbEntity
  8
0
 62
     9
370
    15
100
AcDbLine
 10
123.5000052758955
 20
74.29999639488608
 30
0.0
 11
121.5600052758955
 21
73.90999639488609
 31
0.0
  0
LINE
  5
263
330
8A
100
AcDbEntity
  8
0
 62
     9
370
    15
100
AcDbLine
 10
125.4400052758955
 20
74.71999639488609
 30
0.0
 11
123.5000052758955
 21
74.29999639488608
 31
0.0
  0
LINE
  5
264
330
8A
100
AcDbEntity
  8
0
 62
     9
370
    15
100
AcDbLine
 10
127.3700052758955
 20
75.17999639488606
 30
0.0
 11
125.4400052758955
 21
74.71999639488609
 31
0.0
  0
LINE
  5
265
330
8A
100
AcDbEntity
  8
0
 62
     9
370
    15
100
AcDbLine
 10
129.2900052758955
 20
75.67999639488608
 30
0.0
 11
127.3700052758955
 21
75.17999639488606
 31
0.0
  0
LINE
  5
266
330
8A
100
AcDbEntity
  8
0
 62
     9
370
    15
100
AcDbLine
 10
131.2000052758955
 20
76.2199963948861
 30
0.0
 11
129.2900052758955
 21
75.67999639488608
 31
0.0
  0
LINE
  5
267
330
8A
100
AcDbEntity
  8
0
 62
     9
370
    15
100
AcDbLine
 10
133.1100052758954
 20
76.79999639488608
 30
0.0
 11
131.2000052758955
 21
76.2199963948861
 31
0.0
  0
CIRCLE
  5
268
330
8A
100
AcDbEntity
  8
0
 62
     7
370
    15
100
AcDbCircle
 10
133.1100052758954
 20
76.79999639488608
 30
0.0
 40
1.0
  0
LINE
  5
269
330
8A
100
AcDbEntity
  8
0
 62
     9
370
    15
100
AcDbLine
 10
135.0000052758955
 20
77.41999639488607
 30
0.0
 11
133.1100052758954
 21
76.79999639488608
 31
0.0
  0
LINE
  5
26A
330
8A
100
AcDbEntity
  8
0
 62
     9
370
    15
100
AcDbLine
 10
136.8900052758954
 20
78.06999639488606
 30
0.0
 11
135.0000052758955
 21
77.41999639488607
 31
0.0
  0
LINE
  5
26B
330
8A
100
AcDbEntity
  8
0
 62
     9
370
    15
100
AcDbLine
 10
138.7600052758955
 20
78.76999639488611
 30
0.0
 11
136.8900052758954
 21
78.06999639488606
 31
0.0
  0
LINE
  5
26C
330
8A
100
AcDbEntity
  8
0
 62
     9
370
    15
100
AcDbLine
 10
140.6300052758955
 20
79.49999639488606
 30
0.0
 11
138.7600052758955
 21
78.76999639488611
 31
0.0
  0
LINE
  5
26D
330
8A
100
AcDbEntity
  8
0
 62
     9
370
    15
100
AcDbLine
 10
142.4800052758954
 20
80.26999639488611
 30
0.0
 11
140.6300052758955
 21
79.49999639488606
 31
0.0
  0
LINE
  5
26E
330
8A
100
AcDbEntity
  8
0
 62
     9
370
    15
100
AcDbLine
 10
144.3200052758955
 20
81.0899963948861
 30
0.0
 11
142.4800052758954
 21
80.26999639488611
 31
0.0
  0
LINE
  5
26F
330
8A
100
AcDbEntity
  8
0
 62
     9
370
    15
100
AcDbLine
 10
146.1400052758954
 20
81.93999639488607
 30
0.0
 11
144.3200052758955
 21
81.0899963948861
 31
0.0
  0
LINE
  5
270
330
8A
100
AcDbEntity
  8
0
 62
     9
370
    15
100
AcDbLine
 10
147.9500052758955
 20
82.83999639488611
 30
0.0
 11
146.1400052758954
 21
81.93999639488607
 31
0.0
  0
CIRCLE
  5
271
330
8A
100
AcDbEntity
  8
0
 62
     7
370
    15
100
AcDbCircle
 10
147.9500052758955
 20
82.83999639488611
 30
0.0
 40
1.0
  0
LINE
  5
272
330
8A
100
AcDbEntity
  8
0
 62
     9
370
    15
100
AcDbLine
 10
149.7400052758955
 20
83.7799963948861
 30
0.0
 11
147.9500052758955
 21
82.83999639488611
 31
0.0
  0
LINE
  5
273
330
8A
100
AcDbEntity
  8
0
 62
     9
370
    15
100
AcDbLine
 10
151.5200052758955
 20
84.75999639488604
 30
0.0
 11
149.7400052758955
 21
83.7799963948861
 31
0.0
  0
LINE
  5
274
330
8A
100
AcDbEntity
  8
0
 62
     9
370
    15
100
AcDbLine
 10
153.2800052758955
 20
85.77999639488609
 30
0.0
 11
151.5200052758955
 21
84.75999639488604
 31
0.0
  0
LINE
  5
275
330
8A
100
AcDbEntity
  8
0
 62
     9
370
    15
100
AcDbLine
 10
155.0300052758955
 20
86.83999639488609
 30
0.0
 11
153.2800052758955
 21
85.77999639488609
 31
0.0
  0
LINE
  5
276
330
8A
100
AcDbEntity
  8
0
 62
     9
370
    15
100
AcDbLine
 10
156.7500052758955
 20
87.94999639488606
 30
0.0
 11
155.0300052758955
 21
86.83999639488609
 31
0.0
  0
LINE
  5
277
330
8A
100
AcDbEntity
  8
0
 62
     9
370
    15
100
AcDbLine
 10
158.4500052758954
 20
89.09999639488608
 30
0.0
 11
156.7500052758955
 21
87.94999639488606
 31
0.0
  0
LINE
  5
278
330
8A
100
AcDbEntity
  8
0
 62
     9
370
    15
100
AcDbLine
 10
160.1300052758955
 20
90.28999639488608
 30
0.0
 11
158.4500052758954
 21
89.09999639488608
 31
0.0
  0
LINE
  5
279
330
8A
100
AcDbEntity
  8
0
 62
     9
370
    15
100
AcDbLine
 10
161.7900052758955
 20
91.5299963948861
 30
0.0
 11
160.1300052758955
 21
90.28999639488608
 31
0.0
  0
CIRCLE
  5
27A
330
8A
100
AcDbEntity
  8
0
 62
     7
370
    15
100
AcDbCircle
 10
161.7900052758955
 20
91.5299963948861
 30
0.0
 40
1.0
  0
LINE
  5
27B
330
8A
100
AcDbEntity
  8
0
 62
     9
370
    15
100
AcDbLine
 10
163.4200052758955
 20
92.81999639488606
 30
0.0
 11
161.7900052758955
 21
91.5299963948861
 31
0.0
  0
LINE
  5
27C
330
8A
100
AcDbEntity
  8
0
 62
     9
370
    15
100
AcDbLine
 10
165.0300052758955
 20
94.14999639488613
 30
0.0
 11
163.4200052758955
 21
92.81999639488606
 31
0.0
  0
LINE
  5
27D
330
8A
100
AcDbEntity
  8
0
 62
     9
370
    15
100
AcDbLine
 10
166.6100052758954
 20
95.52999639488607
 30
0.0
 11
165.0300052758955
 21
94.14999639488613
 31
0.0
  0
LINE
  5
27E
330
8A
100
AcDbEntity
  8
0
 62
     9
370
    15
100
AcDbLine
 10
168.1700052758954
 20
96.94999639488607
 30
0.0
 11
166.6100052758954
 21
95.52999639488607
 31
0.0
  0
LINE
  5
27F
330
8A
100
AcDbEntity
  8
0
 62
     9
370
    15
100
AcDbLine
 10
169.6900052758955
 20
98.41999639488607
 30
0.0
 11
168.1700052758954
 21
96.94999639488607
 31
0.0
  0
LINE
  5
280
330
8A
100
AcDbEntity
  8
0
 62
     9
370
    15
100
AcDbLine
 10
171.1800052758955
 20
99.93999639488606
 30
0.0
 11
169.6900052758955
 21
98.41999639488607
 31
0.0
  0
LINE
  5
281
330
8A
100
AcDbEntity
  8
0
 62
     9
370
    15
100
AcDbLine
 10
172.6400052758954
 20
101.509996394886
 30
0.0
 11
171.1800052758955
 21
99.93999639488606
 31
0.0
  0
LINE
  5
282
330
8A
100
AcDbEntity
  8
0
 62
     9
370
    15
100
AcDbLine
 10
174.0600052758955
 20
103.119996394886
 30
0.0
 11
172.6400052758954
 21
101.509996394886
 31
0.0
  0
CIRCLE
  5
283
330
8A
100
AcDbEntity
  8
0
 62
     7
370
    15
100
AcDbCircle
 10
174.0600052758955
 20
103.119996394886
 30
0.0
 40
1.0
  0
LINE
  5
284
330
8A
100
AcDbEntity
  8
0
 62
     9
370
    15
100
AcDbLine
 10
175.4500052758954
 20
104.7899963948861
 30
0.0
 11
174.0600052758955
 21
103.119996394886
 31
0.0
  0
LINE
  5
285
330
8A
100
AcDbEntity
  8
0
 62
     9
370
    15
100
AcDbLine
 10
176.8000052758955
 20
106.499996394886
 30
0.0
 11
175.4500052758954
 21
104.7899963948861
 31
0.0
  0
LINE
  5
286
330
8A
100
AcDbEntity
  8
0
 62
     9
370
    15
100
AcDbLine
 10
178.1100052758955
 20
108.2699963948861
 30
0.0
 11
176.8000052758955
 21
106.499996394886
 31
0.0
  0
LINE
  5
287
330
8A
100
AcDbEntity
  8
0
 62
     9
370
    15
100
AcDbLine
 10
179.3700052758955
 20
110.079996394886
 30
0.0
 11
178.1100052758955
 21
108.2699963948861
 31
0.0
  0
LINE
  5
288
330
8A
100
AcDbEntity
  8
0
 62
     9
370
    15
100
AcDbLine
 10
180.5900052758955
 20
111.949996394886
 30
0.0
 11
179.3700052758955
 21
110.079996394886
 31
0.0
  0
LINE
  5
289
330
8A
100
AcDbEntity
  8
0
 62
     9
370
    15
100
AcDbLine
 10
181.7700052758955
 20
113.8699963948861
 30
0.0
 11
180.5900052758955
 21
111.949996394886
 31
0.0
  0
LINE
  5
28A
330
8A
100
AcDbEntity
  8
0
 62
     9
370
    15
100
AcDbLine
 10
182.8900052758955
 20
115.8399963948861
 30
0.0
 11
181.7700052758955
 21
113.8699963948861
 31
0.0
  0
LINE
  5
28B
330
8A
100
AcDbEntity
  8
0
 62
     9
370
    15
100
AcDbLine
 10
183.9600052758955
 20
117.869996394886
 30
0.0
 11
182.8900052758955
 21
115.8399963948861
 31
0.0
  0
CIRCLE
  5
28C
330
8A
100
AcDbEntity
  8
0
 62
     7
370
    15
100
AcDbCircle
 10
183.9600052758955
 20
117.869996394886
 30
0.0
 40
1.0
  0
LINE
  5
28D
330
8A
100
AcDbEntity
  8
0
 62
     9
370
    15
100
AcDbLine
 10
184.9700052758955
 20
119.949996394886
 30
0.0
 11
183.9600052758955
 21
117.869996394886
 31
0.0
  0
LINE
  5
28E
330
8A
100
AcDbEntity
  8
0
 62
     9
370
    15
100
AcDbLine
 10
185.9300052758955
 20
122.079996394886
 30
0.0
 11
184.9700052758955
 21
119.949996394886
 31
0.0
  0
LINE
  5
28F
330
8A
100
AcDbEntity
  8
0
 62
     9
370
    15
100
AcDbLine
 10
186.8300052758955
 20
124.259996394886
 30
0.0
 11
185.9300052758955
 21
122.079996394886
 31
0.0
  0
LINE
  5
290
330
8A
100
AcDbEntity
  8
0
 62
     9
370
    15
100
AcDbLine
 10
187.6600052758955
 20
126.499996394886
 30
0.0
 11
186.8300052758955
 21
124.259996394886
 31
0.0
  0
LINE
  5
291
330
8A
100
AcDbEntity
  8
0
 62
     9
370
    15
100
AcDbLine
 10
188.4200052758955
 20
128.7899963948861
 30
0.0
 11
187.6600052758955
 21
126.499996394886
 31
0.0
  0
LINE
  5
292
330
8A
100
AcDbEntity
  8
0
 62
     9
370
    15
100
AcDbLine
 10
189.1100052758955
 20
131.1399963948861
 30
0.0
 11
188.4200052758955
 21
128.7899963948861
 31
0.0
  0
LINE
  5
293
330
8A
100
AcDbEntity
  8
0
 62
     9
370
    15
100
AcDbLine
 10
189.3700052758955
 20
132.0999963948861
 30
0.0
 11
189.1100052758955
 21
131.1399963948861
 31
0.0
  0
MTEXT
  5
294
330
8A
100
AcDbEntity
  8
0
 62
     9
100
AcDbMText
 10
17.62000527589548
 20
149.7899963948861
 30
0.0
 40
3.5
 41
0.0
 71
     1
 72
     1
  1
B
  7
Geneva
 73
     1
 44
1.0
1001
ACAD
1000
MTEXTBEGIN
1070
    73
1070
     1
1070
    44
1040
1.0
1070
    74
1070
     0
1000
MTEXTEND
  0
LINE
  5
295
330
8A
100
AcDbEntity
  8
0
 62
     9
370
    15
100
AcDbLine
 10
22.5500052758955
 20
149.2799963948861
 30
0.0
 11
22.5500052758955
 21
150.8999963948861
 31
0.0
  0
LINE
  5
296
330
8A
100
AcDbEntity
  8
0
 62
     9
370
    15
100
AcDbLine
 10
22.63000527589548
 20
146.9099963948861
 30
0.0
 11
22.5500052758955
 21
149.2799963948861
 31
0.0
  0
LINE
  5
297
330
8A
100
AcDbEntity
  8
0
 62
     9
370
    15
100
AcDbLine
 10
22.8000052758955
 20
144.569996394886
 30
0.0
 11
22.63000527589548
 21
146.9099963948861
 31
0.0
  0
LINE
  5
298
330
8A
100
AcDbEntity
  8
0
 62
     9
370
    15
100
AcDbLine
 10
23.0500052758955
 20
142.2699963948861
 30
0.0
 11
22.8000052758955
 21
144.569996394886
 31
0.0
  0
CIRCLE
  5
299
330
8A
100
AcDbEntity
  8
0
 62
     7
370
    15
100
AcDbCircle
 10
23.0500052758955
 20
142.2699963948861
 30
0.0
 40
1.0
  0
LINE
  5
29A
330
8A
100
AcDbEntity
  8
0
 62
     9
370
    15
100
AcDbLine
 10
23.38000527589549
 20
140.0099963948861
 30
0.0
 11
23.0500052758955
 21
142.2699963948861
 31
0.0
  0
LINE
  5
29B
330
8A
100
AcDbEntity
  8
0
 62
     9
370
    15
100
AcDbLine
 10
23.79000527589551
 20
137.7899963948861
 30
0.0
 11
23.38000527589549
 21
140.0099963948861
 31
0.0
  0
LINE
  5
29C
330
8A
100
AcDbEntity
  8
0
 62
     9
370
    15
100
AcDbLine
 10
24.27000527589547
 20
135.619996394886
 30
0.0
 11
23.79000527589551
 21
137.7899963948861
 31
0.0
  0
LINE
  5
29D
330
8A
100
AcDbEntity
  8
0
 62
     9
370
    15
100
AcDbLine
 10
24.82000527589548
 20
133.4799963948861
 30
0.0
 11
24.27000527589547
 21
135.619996394886
 31
0.0
  0
LINE
  5
29E
330
8A
100
AcDbEntity
  8
0
 62
     9
370
    15
100
AcDbLine
 10
25.44000527589549
 20
131.3899963948861
 30
0.0
 11
24.82000527589548
 21
133.4799963948861
 31
0.0
  0
LINE
  5
29F
330
8A
100
AcDbEntity
  8
0
 62
     9
370
    15
100
AcDbLine
 10
26.12000527589549
 20
129.339996394886
 30
0.0
 11
25.44000527589549
 21
131.3899963948861
 31
0.0
  0
LINE
  5
2A0
330
8A
100
AcDbEntity
  8
0
 62
     9
370
    15
100
AcDbLine
 10
26.8700052758955
 20
127.329996394886
 30
0.0
 11
26.12000527589549
 21
129.339996394886
 31
0.0
  0
LINE
  5
2A1
330
8A
100
AcDbEntity
  8
0
 62
     9
370
    15
100
AcDbLine
 10
27.6800052758955
 20
125.3699963948861
 30
0.0
 11
26.8700052758955
 21
127.329996394886
 31
0.0
  0
CIRCLE
  5
2A2
330
8A
100
AcDbEntity
  8
0
 62
     7
370
    15
100
AcDbCircle
 10
27.6800052758955
 20
125.3699963948861
 30
0.0
 40
1.0
  0
LINE
  5
2A3
330
8A
100
AcDbEntity
  8
0
 62
     9
370
    15
100
AcDbLine
 10
28.54000527589551
 20
123.459996394886
 30
0.0
 11
27.6800052758955
 21
125.3699963948861
 31
0.0
  0
LINE
  5
2A4
330
8A
100
AcDbEntity
  8
0
 62
     9
370
    15
100
AcDbLine
 10
29.45000527589548
 20
121.5899963948861
 30
0.0
 11
28.54000527589551
 21
123.459996394886
 31
0.0
  0
LINE
  5
2A5
330
8A
100
AcDbEntity
  8
0
 62
     9
370
    15
100
AcDbLine
 10
30.4200052758955
 20
119.759996394886
 30
0.0
 11
29.45000527589548
 21
121.5899963948861
 31
0.0
  0
LINE
  5
2A6
330
8A
100
AcDbEntity
  8
0
 62
     9
370
    15
100
AcDbLine
 10
31.44000527589549
 20
117.9799963948861
 30
0.0
 11
30.4200052758955
 21
119.759996394886
 31
0.0
  0
LINE
  5
2A7
330
8A
100
AcDbEntity
  8
0
 62
     9
370
    15
100
AcDbLine
 10
32.50000527589549
 20
116.239996394886
 30
0.0
 11
31.44000527589549
 21
117.9799963948861
 31
0.0
  0
LINE
  5
2A8
330
8A
100
AcDbEntity
  8
0
 62
     9
370
    15
100
AcDbLine
 10
33.6100052758955
 20
114.549996394886
 30
0.0
 11
32.50000527589549
 21
116.239996394886
 31
0.0
  0
LINE
  5
2A9
330
8A
100
AcDbEntity
  8
0
 62
     9
370
    15
100
AcDbLine
 10
34.77000527589547
 20
112.8999963948861
 30
0.0
 11
33.6100052758955
 21
114.549996394886
 31
0.0
  0
LINE
  5
2AA
330
8A
100
AcDbEntity
  8
0
 62
     9
370
    15
100
AcDbLine
 10
35.96000527589547
 20
111.2999963948861
 30
0.0
 11
34.77000527589547
 21
112.8999963948861
 31
0.0
  0
CIRCLE
  5
2AB
330
8A
100
AcDbEntity
  8
0
 62
     7
370
    15
100
AcDbCircle
 10
35.96000527589547
 20
111.2999963948861
 30
0.0
 40
1.0
  0
LINE
  5
2AC
330
8A
100
AcDbEntity
  8
0
 62
     9
370
    15
100
AcDbLine
 10
37.19000527589549
 20
109.739996394886
 30
0.0
 11
35.96000527589547
 21
111.2999963948861
 31
0.0
  0
LINE
  5
2AD
330
8A
100
AcDbEntity
  8
0
 62
     9
370
    15
100
AcDbLine
 10
38.46000527589547
 20
108.2299963948861
 30
0.0
 11
37.19000527589549
 21
109.739996394886
 31
0.0
  0
LINE
  5
2AE
330
8A
100
AcDbEntity
  8
0
 62
     9
370
    15
100
AcDbLine
 10
39.77000527589547
 20
106.759996394886
 30
0.0
 11
38.46000527589547
 21
108.2299963948861
 31
0.0
  0
LINE
  5
2AF
330
8A
100
AcDbEntity
  8
0
 62
     9
370
    15
100
AcDbLine
 10
41.1100052758955
 20
105.3399963948861
 30
0.0
 11
39.77000527589547
 21
106.759996394886
 31
0.0
  0
LINE
  5
2B0
330
8A
100
AcDbEntity
  8
0
 62
     9
370
    15
100
AcDbLine
 10
42.4800052758955
 20
103.949996394886
 30
0.0
 11
41.1100052758955
 21
105.3399963948861
 31
0.0
  0
LINE
  5
2B1
330
8A
100
AcDbEntity
  8
0
 62
     9
370
    15
100
AcDbLine
 10
43.88000527589547
 20
102.6199963948861
 30
0.0
 11
42.4800052758955
 21
103.949996394886
 31
0.0
  0
LINE
  5
2B2
330
8A
100
AcDbEntity
  8
0
 62
     9
370
    15
100
AcDbLine
 10
45.31000527589549
 20
101.319996394886
 30
0.0
 11
43.88000527589547
 21
102.6199963948861
 31
0.0
  0
LINE
  5
2B3
330
8A
100
AcDbEntity
  8
0
 62
     9
370
    15
100
AcDbLine
 10
46.77000527589547
 20
100.069996394886
 30
0.0
 11
45.31000527589549
 21
101.319996394886
 31
0.0
  0
CIRCLE
  5
2B4
330
8A
100
AcDbEntity
  8
0
 62
     7
370
    15
100
AcDbCircle
 10
46.77000527589547
 20
100.069996394886
 30
0.0
 40
1.0
  0
LINE
  5
2B5
330
8A
100
AcDbEntity
  8
0
 62
     9
370
    15
100
AcDbLine
 10
48.26000527589548
 20
98.85999639488607
 30
0.0
 11
46.77000527589547
 21
100.069996394886
 31
0.0
  0
LINE
  5
2B6
330
8A
100
AcDbEntity
  8
0
 62
     9
370
    15
100
AcDbLine
 10
49.77000527589547
 20
97.68999639488605
 30
0.0
 11
48.26000527589548
 21
98.85999639488607
 31
0.0
  0
LINE
  5
2B7
330
8A
100
AcDbEntity
  8
0
 62
     9
370
    15
100
AcDbLine
 10
51.3000052758955
 20
96.55999639488607
 30
0.0
 11
49.77000527589547
 21
97.68999639488605
 31
0.0
  0
LINE
  5
2B8
330
8A
100
AcDbEntity
  8
0
 62
     9
370
    15
100
AcDbLine
 10
52.8600052758955
 20
95.47999639488606
 30
0.0
 11
51.3000052758955
 21
96.55999639488607
 31
0.0
  0
LINE
  5
2B9
330
8A
100
AcDbEntity
  8
0
 62
     9
370
    15
100
AcDbLine
 10
54.44000527589547
 20
94.42999639488608
 30
0.0
 11
52.8600052758955
 21
95.47999639488606
 31
0.0
  0
LINE
  5
2BA
330
8A
100
AcDbEntity
  8
0
 62
     9
370
    15
100
AcDbLine
 10
56.04000527589551
 20
93.42999639488608
 30
0.0
 11
54.44000527589547
 21
94.42999639488608
 31
0.0
  0
LINE
  5
2BB
330
8A
100
AcDbEntity
  8
0
 62
     9
370
    15
100
AcDbLine
 10
57.6600052758955
 20
92.45999639488607
 30
0.0
 11
56.04000527589551
 21
93.42999639488608
 31
0.0
  0
LINE
  5
2BC
330
8A
100
AcDbEntity
  8
0
 62
     9
370
    15
100
AcDbLine
 10
59.3000052758955
 20
91.53999639488608
 30
0.0
 11
57.6600052758955
 21
92.45999639488607
 31
0.0
  0
CIRCLE
  5
2BD
330
8A
100
AcDbEntity
  8
0
 62
     7
370
    15
100
AcDbCircle
 10
59.3000052758955
 20
91.53999639488608
 30
0.0
 40
1.0
  0
LINE
  5
2BE
330
8A
100
AcDbEntity
  8
0
 62
     9
370
    15
100
AcDbLine
 10
60.96000527589547
 20
90.65999639488607
 30
0.0
 11
59.3000052758955
 21
91.53999639488608
 31
0.0
  0
LINE
  5
2BF
330
8A
100
AcDbEntity
  8
0
 62
     9
370
    15
100
AcDbLine
 10
62.63000527589547
 20
89.81999639488606
 30
0.0
 11
60.96000527589547
 21
90.65999639488607
 31
0.0
  0
LINE
  5
2C0
330
8A
100
AcDbEntity
  8
0
 62
     9
370
    15
100
AcDbLine
 10
64.31000527589549
 20
89.00999639488606
 30
0.0
 11
62.63000527589547
 21
89.81999639488606
 31
0.0
  0
LINE
  5
2C1
330
8A
100
AcDbEntity
  8
0
 62
     9
370
    15
100
AcDbLine
 10
66.02000527589547
 20
88.24999639488606
 30
0.0
 11
64.31000527589549
 21
89.00999639488606
 31
0.0
  0
LINE
  5
2C2
330
8A
100
AcDbEntity
  8
0
 62
     9
370
    15
100
AcDbLine
 10
67.73000527589551
 20
87.51999639488611
 30
0.0
 11
66.02000527589547
 21
88.24999639488606
 31
0.0
  0
LINE
  5
2C3
330
8A
100
AcDbEntity
  8
0
 62
     9
370
    15
100
AcDbLine
 10
69.46000527589546
 20
86.83999639488609
 30
0.0
 11
67.73000527589551
 21
87.51999639488611
 31
0.0
  0
LINE
  5
2C4
330
8A
100
AcDbEntity
  8
0
 62
     9
370
    15
100
AcDbLine
 10
71.20000527589548
 20
86.18999639488604
 30
0.0
 11
69.46000527589546
 21
86.83999639488609
 31
0.0
  0
LINE
  5
2C5
330
8A
100
AcDbEntity
  8
0
 62
     9
370
    15
100
AcDbLine
 10
72.95000527589547
 20
85.57999639488604
 30
0.0
 11
71.20000527589548
 21
86.18999639488604
 31
0.0
  0
CIRCLE
  5
2C6
330
8A
100
AcDbEntity
  8
0
 62
     7
370
    15
100
AcDbCircle
 10
72.95000527589547
 20
85.57999639488604
 30
0.0
 40
1.0
  0
LINE
  5
2C7
330
8A
100
AcDbEntity
  8
0
 62
     9
370
    15
100
AcDbLine
 10
74.72000527589544
 20
85.00999639488606
 30
0.0
 11
72.95000527589547
 21
85.57999639488604
 31
0.0
  0
LINE
  5
2C8
330
8A
100
AcDbEntity
  8
0
 62
     9
370
    15
100
AcDbLine
 10
76.49000527589548
 20
84.46999639488609
 30
0.0
 11
74.72000527589544
 21
85.00999639488606
 31
0.0
  0
LINE
  5
2C9
330
8A
100
AcDbEntity
  8
0
 62
     9
370
    15
100
AcDbLine
 10
78.27000527589547
 20
83.97999639488608
 30
0.0
 11
76.49000527589548
 21
84.46999639488609
 31
0.0
  0
LINE
  5
2CA
330
8A
100
AcDbEntity
  8
0
 62
     9
370
    15
100
AcDbLine
 10
80.06000527589547
 20
83.51999639488608
 30
0.0
 11
78.27000527589547
 21
83.97999639488608
 31
0.0
  0
LINE
  5
2CB
330
8A
100
AcDbEntity
  8
0
 62
     9
370
    15
100
AcDbLine
 10
81.8600052758955
 20
83.08999639488609
 30
0.0
 11
80.06000527589547
 21
83.51999639488608
 31
0.0
  0
LINE
  5
2CC
330
8A
100
AcDbEntity
  8
0
 62
     9
370
    15
100
AcDbLine
 10
83.66000527589552
 20
82.70999639488605
 30
0.0
 11
81.8600052758955
 21
83.08999639488609
 31
0.0
  0
LINE
  5
2CD
330
8A
100
AcDbEntity
  8
0
 62
     9
370
    15
100
AcDbLine
 10
85.47000527589544
 20
82.35999639488609
 30
0.0
 11
83.66000527589552
 21
82.70999639488605
 31
0.0
  0
LINE
  5
2CE
330
8A
100
AcDbEntity
  8
0
 62
     9
370
    15
100
AcDbLine
 10
87.29000527589553
 20
82.04999639488608
 30
0.0
 11
85.47000527589544
 21
82.35999639488609
 31
0.0
  0
CIRCLE
  5
2CF
330
8A
100
AcDbEntity
  8
0
 62
     7
370
    15
100
AcDbCircle
 10
87.29000527589553
 20
82.04999639488608
 30
0.0
 40
1.0
  0
LINE
  5
2D0
330
8A
100
AcDbEntity
  8
0
 62
     9
370
    15
100
AcDbLine
 10
89.1100052758955
 20
81.77999639488609
 30
0.0
 11
87.29000527589553
 21
82.04999639488608
 31
0.0
  0
LINE
  5
2D1
330
8A
100
AcDbEntity
  8
0
 62
     9
370
    15
100
AcDbLine
 10
90.9300052758955
 20
81.53999639488608
 30
0.0
 11
89.1100052758955
 21
81.77999639488609
 31
0.0
  0
LINE
  5
2D2
330
8A
100
AcDbEntity
  8
0
 62
     9
370
    15
100
AcDbLine
 10
92.76000527589548
 20
81.3399963948861
 30
0.0
 11
90.9300052758955
 21
81.53999639488608
 31
0.0
  0
LINE
  5
2D3
330
8A
100
AcDbEntity
  8
0
 62
     9
370
    15
100
AcDbLine
 10
94.59000527589546
 20
81.17999639488607
 30
0.0
 11
92.76000527589548
 21
81.3399963948861
 31
0.0
  0
LINE
  5
2D4
330
8A
100
AcDbEntity
  8
0
 62
     9
370
    15
100
AcDbLine
 10
96.43000527589549
 20
81.04999639488609
 30
0.0
 11
94.59000527589546
 21
81.17999639488607
 31
0.0
  0
LINE
  5
2D5
330
8A
100
AcDbEntity
  8
0
 62
     9
370
    15
100
AcDbLine
 10
98.26000527589549
 20
80.95999639488605
 30
0.0
 11
96.43000527589549
 21
81.04999639488609
 31
0.0
  0
LINE
  5
2D6
330
8A
100
AcDbEntity
  8
0
 62
     9
370
    15
100
AcDbLine
 10
100.1000052758954
 20
80.89999639488608
 30
0.0
 11
98.26000527589549
 21
80.95999639488605
 31
0.0
  0
LINE
  5
2D7
330
8A
100
AcDbEntity
  8
0
 62
     9
370
    15
100
AcDbLine
 10
101.9400052758955
 20
80.8899963948861
 30
0.0
 11
100.1000052758954
 21
80.89999639488608
 31
0.0
  0
CIRCLE
  5
2D8
330
8A
100
AcDbEntity
  8
0
 62
     7
370
    15
100
AcDbCircle
 10
101.9400052758955
 20
80.8899963948861
 30
0.0
 40
1.0
  0
LINE
  5
2D9
330
8A
100
AcDbEntity
  8
0
 62
     9
370
    15
100
AcDbLine
 10
103.7800052758955
 20
80.89999639488608
 30
0.0
 11
101.9400052758955
 21
80.8899963948861
 31
0.0
  0
LINE
  5
2DA
330
8A
100
AcDbEntity
  8
0
 62
     9
370
    15
100
AcDbLine
 10
105.6200052758955
 20
80.95999639488605
 30
0.0
 11
103.7800052758955
 21
80.89999639488608
 31
0.0
  0
LINE
  5
2DB
330
8A
100
AcDbEntity
  8
0
 62
     9
370
    15
100
AcDbLine
 10
107.4500052758954
 20
81.04999639488609
 30
0.0
 11
105.6200052758955
 21
80.95999639488605
 31
0.0
  0
LINE
  5
2DC
330
8A
100
AcDbEntity
  8
0
 62
     9
370
    15
100
AcDbLine
 10
109.2900052758955
 20
81.17999639488607
 30
0.0
 11
107.4500052758954
 21
81.04999639488609
 31
0.0
  0
LINE
  5
2DD
330
8A
100
AcDbEntity
  8
0
 62
     9
370
    15
100
AcDbLine
 10
111.1200052758955
 20
81.3399963948861
 30
0.0
 11
109.2900052758955
 21
81.17999639488607
 31
0.0
  0
LINE
  5
2DE
330
8A
100
AcDbEntity
  8
0
 62
     9
370
    15
100
AcDbLine
 10
112.9500052758954
 20
81.53999639488608
 30
0.0
 11
111.1200052758955
 21
81.3399963948861
 31
0.0
  0
LINE
  5
2DF
330
8A
100
AcDbEntity
  8
0
 62
     9
370
    15
100
AcDbLine
 10
114.7700052758954
 20
81.77999639488609
 30
0.0
 11
112.9500052758954
 21
81.53999639488608
 31
0.0
  0
LINE
  5
2E0
330
8A
100
AcDbEntity
  8
0
 62
     9
370
    15
100
AcDbLine
 10
116.5900052758954
 20
82.04999639488608
 30
0.0
 11
114.7700052758954
 21
81.77999639488609
 31
0.0
  0
CIRCLE
  5
2E1
330
8A
100
AcDbEntity
  8
0
 62
     7
370
    15
100
AcDbCircle
 10
116.5900052758954
 20
82.04999639488608
 30
0.0
 40
1.0
  0
LINE
  5
2E2
330
8A
100
AcDbEntity
  8
0
 62
     9
370
    15
100
AcDbLine
 10
118.4100052758955
 20
82.35999639488609
 30
0.0
 11
116.5900052758954
 21
82.04999639488608
 31
0.0
  0
LINE
  5
2E3
330
8A
100
AcDbEntity
  8
0
 62
     9
370
    15
100
AcDbLine
 10
120.2200052758954
 20
82.70999639488605
 30
0.0
 11
118.4100052758955
 21
82.35999639488609
 31
0.0
  0
LINE
  5
2E4
330
8A
100
AcDbEntity
  8
0
 62
     9
370
    15
100
AcDbLine
 10
122.0200052758954
 20
83.08999639488609
 30
0.0
 11
120.2200052758954
 21
82.70999639488605
 31
0.0
  0
LINE
  5
2E5
330
8A
100
AcDbEntity
  8
0
 62
     9
370
    15
100
AcDbLine
 10
123.8200052758955
 20
83.51999639488608
 30
0.0
 11
122.0200052758954
 21
83.08999639488609
 31
0.0
  0
LINE
  5
2E6
330
8A
100
AcDbEntity
  8
0
 62
     9
370
    15
100
AcDbLine
 10
125.6100052758954
 20
83.97999639488608
 30
0.0
 11
123.8200052758955
 21
83.51999639488608
 31
0.0
  0
LINE
  5
2E7
330
8A
100
AcDbEntity
  8
0
 62
     9
370
    15
100
AcDbLine
 10
127.3900052758955
 20
84.46999639488609
 30
0.0
 11
125.6100052758954
 21
83.97999639488608
 31
0.0
  0
LINE
  5
2E8
330
8A
100
AcDbEntity
  8
0
 62
     9
370
    15
100
AcDbLine
 10
129.1600052758955
 20
85.00999639488606
 30
0.0
 11
127.3900052758955
 21
84.46999639488609
 31
0.0
  0
LINE
  5
2E9
330
8A
100
AcDbEntity
  8
0
 62
     9
370
    15
100
AcDbLine
 10
130.9300052758955
 20
85.57999639488604
 30
0.0
 11
129.1600052758955
 21
85.00999639488606
 31
0.0
  0
CIRCLE
  5
2EA
330
8A
100
AcDbEntity
  8
0
 62
     7
370
    15
100
AcDbCircle
 10
130.9300052758955
 20
85.57999639488604
 30
0.0
 40
1.0
  0
LINE
  5
2EB
330
8A
100
AcDbEntity
  8
0
 62
     9
370
    15
100
AcDbLine
 10
132.6800052758955
 20
86.18999639488604
 30
0.0
 11
130.9300052758955
 21
85.57999639488604
 31
0.0
  0
LINE
  5
2EC
330
8A
100
AcDbEntity
  8
0
 62
     9
370
    15
100
AcDbLine
 10
134.4200052758955
 20
86.83999639488609
 30
0.0
 11
132.6800052758955
 21
86.18999639488604
 31
0.0
  0
LINE
  5
2ED
330
8A
100
AcDbEntity
  8
0
 62
     9
370
    15
100
AcDbLine
 10
136.1500052758955
 20
87.51999639488611
 30
0.0
 11
134.4200052758955
 21
86.83999639488609
 31
0.0
  0
LINE
  5
2EE
330
8A
100
AcDbEntity
  8
0
 62
     9
370
    15
100
AcDbLine
 10
137.8600052758954
 20
88.24999639488606
 30
0.0
 11
136.1500052758955
 21
87.51999639488611
 31
0.0
  0
LINE
  5
2EF
330
8A
100
AcDbEntity
  8
0
 62
     9
370
    15
100
AcDbLine
 10
139.5700052758955
 20
89.00999639488606
 30
0.0
 11
137.8600052758954
 21
88.24999639488606
 31
0.0
  0
LINE
  5
2F0
330
8A
100
AcDbEntity
  8
0
 62
     9
370
    15
100
AcDbLine
 10
141.2500052758955
 20
89.81999639488606
 30
0.0
 11
139.5700052758955
 21
89.00999639488606
 31
0.0
  0
LINE
  5
2F1
330
8A
100
AcDbEntity
  8
0
 62
     9
370
    15
100
AcDbLine
 10
142.9200052758955
 20
90.65999639488607
 30
0.0
 11
141.2500052758955
 21
89.81999639488606
 31
0.0
  0
LINE
  5
2F2
330
8A
100
AcDbEntity
  8
0
 62
     9
370
    15
100
AcDbLine
 10
144.5800052758954
 20
91.53999639488608
 30
0.0
 11
142.9200052758955
 21
90.65999639488607
 31
0.0
  0
CIRCLE
  5
2F3
330
8A
100
AcDbEntity
  8
0
 62
     7
370
    15
100
AcDbCircle
 10
144.5800052758954
 20
91.53999639488608
 30
0.0
 40
1.0
  0
LINE
  5
2F4
330
8A
100
AcDbEntity
  8
0
 62
     9
370
    15
100
AcDbLine
 10
146.2200052758954
 20
92.45999639488607
 30
0.0
 11
144.5800052758954
 21
91.53999639488608
 31
0.0
  0
LINE
  5
2F5
330
8A
100
AcDbEntity
  8
0
 62
     9
370
    15
100
AcDbLine
 10
147.8400052758955
 20
93.42999639488608
 30
0.0
 11
146.2200052758954
 21
92.45999639488607
 31
0.0
  0
LINE
  5
2F6
330
8A
100
AcDbEntity
  8
0
 62
     9
370
    15
100
AcDbLine
 10
149.4400052758955
 20
94.42999639488608
 30
0.0
 11
147.8400052758955
 21
93.42999639488608
 31
0.0
  0
LINE
  5
2F7
330
8A
100
AcDbEntity
  8
0
 62
     9
370
    15
100
AcDbLine
 10
151.0200052758955
 20
95.47999639488606
 30
0.0
 11
149.4400052758955
 21
94.42999639488608
 31
0.0
  0
LINE
  5
2F8
330
8A
100
AcDbEntity
  8
0
 62
     9
370
    15
100
AcDbLine
 10
152.5800052758954
 20
96.55999639488607
 30
0.0
 11
151.0200052758955
 21
95.47999639488606
 31
0.0
  0
LINE
  5
2F9
330
8A
100
AcDbEntity
  8
0
 62
     9
370
    15
100
AcDbLine
 10
154.1100052758954
 20
97.68999639488605
 30
0.0
 11
152.5800052758954
 21
96.55999639488607
 31
0.0
  0
LINE
  5
2FA
330
8A
100
AcDbEntity
  8
0
 62
     9
370
    15
100
AcDbLine
 10
155.6200052758955
 20
98.85999639488607
 30
0.0
 11
154.1100052758954
 21
97.68999639488605
 31
0.0
  0
LINE
  5
2FB
330
8A
100
AcDbEntity
  8
0
 62
     9
370
    15
100
AcDbLine
 10
157.1100052758954
 20
100.069996394886
 30
0.0
 11
155.6200052758955
 21
98.85999639488607
 31
0.0
  0
CIRCLE
  5
2FC
330
8A
100
AcDbEntity
  8
0
 62
     7
370
    15
100
AcDbCircle
 10
157.1100052758954
 20
100.069996394886
 30
0.0
 40
1.0
  0
LINE
  5
2FD
330
8A
100
AcDbEntity
  8
0
 62
     9
370
    15
100
AcDbLine
 10
158.5700052758955
 20
101.319996394886
 30
0.0
 11
157.1100052758954
 21
100.069996394886
 31
0.0
  0
LINE
  5
2FE
330
8A
100
AcDbEntity
  8
0
 62
     9
370
    15
100
AcDbLine
 10
160.0000052758955
 20
102.6199963948861
 30
0.0
 11
158.5700052758955
 21
101.319996394886
 31
0.0
  0
LINE
  5
2FF
330
8A
100
AcDbEntity
  8
0
 62
     9
370
    15
100
AcDbLine
 10
161.4000052758955
 20
103.949996394886
 30
0.0
 11
160.0000052758955
 21
102.6199963948861
 31
0.0
  0
LINE
  5
300
330
8A
100
AcDbEntity
  8
0
 62
     9
370
    15
100
AcDbLine
 10
162.7700052758955
 20
105.3399963948861
 30
0.0
 11
161.4000052758955
 21
103.949996394886
 31
0.0
  0
LINE
  5
301
330
8A
100
AcDbEntity
  8
0
 62
     9
370
    15
100
AcDbLine
 10
164.1100052758955
 20
106.759996394886
 30
0.0
 11
162.7700052758955
 21
105.3399963948861
 31
0.0
  0
LINE
  5
302
330
8A
100
AcDbEntity
  8
0
 62
     9
370
    15
100
AcDbLine
 10
165.4200052758955
 20
108.2299963948861
 30
0.0
 11
164.1100052758955
 21
106.759996394886
 31
0.0
  0
LINE
  5
303
330
8A
100
AcDbEntity
  8
0
 62
     9
370
    15
100
AcDbLine
 10
166.6900052758955
 20
109.739996394886
 30
0.0
 11
165.4200052758955
 21
108.2299963948861
 31
0.0
  0
LINE
  5
304
330
8A
100
AcDbEntity
  8
0
 62
     9
370
    15
100
AcDbLine
 10
167.9200052758955
 20
111.2999963948861
 30
0.0
 11
166.6900052758955
 21
109.739996394886
 31
0.0
  0
CIRCLE
  5
305
330
8A
100
AcDbEntity
  8
0
 62
     7
370
    15
100
AcDbCircle
 10
167.9200052758955
 20
111.2999963948861
 30
0.0
 40
1.0
  0
LINE
  5
306
330
8A
100
AcDbEntity
  8
0
 62
     9
370
    15
100
AcDbLine
 10
169.1100052758955
 20
112.8999963948861
 30
0.0
 11
167.9200052758955
 21
111.2999963948861
 31
0.0
  0
LINE
  5
307
330
8A
100
AcDbEntity
  8
0
 62
     9
370
    15
100
AcDbLine
 10
170.2700052758955
 20
114.549996394886
 30
0.0
 11
169.1100052758955
 21
112.8999963948861
 31
0.0
  0
LINE
  5
308
330
8A
100
AcDbEntity
  8
0
 62
     9
370
    15
100
AcDbLine
 10
171.3800052758955
 20
116.239996394886
 30
0.0
 11
170.2700052758955
 21
114.549996394886
 31
0.0
  0
LINE
  5
309
330
8A
100
AcDbEntity
  8
0
 62
     9
370
    15
100
AcDbLine
 10
172.4400052758955
 20
117.9799963948861
 30
0.0
 11
171.3800052758955
 21
116.239996394886
 31
0.0
  0
LINE
  5
30A
330
8A
100
AcDbEntity
  8
0
 62
     9
370
    15
100
AcDbLine
 10
173.4600052758955
 20
119.759996394886
 30
0.0
 11
172.4400052758955
 21
117.9799963948861
 31
0.0
  0
LINE
  5
30B
330
8A
100
AcDbEntity
  8
0
 62
     9
370
    15
100
AcDbLine
 10
174.4300052758955
 20
121.5899963948861
 30
0.0
 11
173.4600052758955
 21
119.759996394886
 31
0.0
  0
LINE
  5
30C
330
8A
100
AcDbEntity
  8
0
 62
     9
370
    15
100
AcDbLine
 10
175.3400052758955
 20
123.459996394886
 30
0.0
 11
174.4300052758955
 21
121.5899963948861
 31
0.0
  0
LINE
  5
30D
330
8A
100
AcDbEntity
  8
0
 62
     9
370
    15
100
AcDbLine
 10
176.2000052758954
 20
125.3699963948861
 30
0.0
 11
175.3400052758955
 21
123.459996394886
 31
0.0
  0
CIRCLE
  5
30E
330
8A
100
AcDbEntity
  8
0
 62
     7
370
    15
100
AcDbCircle
 10
176.2000052758954
 20
125.3699963948861
 30
0.0
 40
1.0
  0
LINE
  5
30F
330
8A
100
AcDbEntity
  8
0
 62
     9
370
    15
100
AcDbLine
 10
177.0100052758954
 20
127.329996394886
 30
0.0
 11
176.2000052758954
 21
125.3699963948861
 31
0.0
  0
LINE
  5
310
330
8A
100
AcDbEntity
  8
0
 62
     9
370
    15
100
AcDbLine
 10
177.7600052758955
 20
129.339996394886
 30
0.0
 11
177.0100052758954
 21
127.329996394886
 31
0.0
  0
LINE
  5
311
330
8A
100
AcDbEntity
  8
0
 62
     9
370
    15
100
AcDbLine
 10
178.4400052758955
 20
131.3899963948861
 30
0.0
 11
177.7600052758955
 21
129.339996394886
 31
0.0
  0
LINE
  5
312
330
8A
100
AcDbEntity
  8
0
 62
     9
370
    15
100
AcDbLine
 10
179.0600052758955
 20
133.4799963948861
 30
0.0
 11
178.4400052758955
 21
131.3899963948861
 31
0.0
  0
LINE
  5
313
330
8A
100
AcDbEntity
  8
0
 62
     9
370
    15
100
AcDbLine
 10
179.6100052758955
 20
135.619996394886
 30
0.0
 11
179.0600052758955
 21
133.4799963948861
 31
0.0
  0
LINE
  5
314
330
8A
100
AcDbEntity
  8
0
 62
     9
370
    15
100
AcDbLine
 10
180.0900052758955
 20
137.7899963948861
 30
0.0
 11
179.6100052758955
 21
135.619996394886
 31
0.0
  0
LINE
  5
315
330
8A
100
AcDbEntity
  8
0
 62
     9
370
    15
100
AcDbLine
 10
180.5000052758955
 20
140.0099963948861
 30
0.0
 11
180.0900052758955
 21
137.7899963948861
 31
0.0
  0
LINE
  5
316
330
8A
100
AcDbEntity
  8
0
 62
     9
370
    15
100
AcDbLine
 10
180.8300052758955
 20
142.2699963948861
 30
0.0
 11
180.5000052758955
 21
140.0099963948861
 31
0.0
  0
CIRCLE
  5
317
330
8A
100
AcDbEntity
  8
0
 62
     7
370
    15
100
AcDbCircle
 10
180.8300052758955
 20
142.2699963948861
 30
0.0
 40
1.0
  0
LINE
  5
318
330
8A
100
AcDbEntity
  8
0
 62
     9
370
    15
100
AcDbLine
 10
181.0800052758954
 20
144.569996394886
 30
0.0
 11
180.8300052758955
 21
142.2699963948861
 31
0.0
  0
LINE
  5
319
330
8A
100
AcDbEntity
  8
0
 62
     9
370
    15
100
AcDbLine
 10
181.2500052758955
 20
146.9099963948861
 30
0.0
 11
181.0800052758954
 21
144.569996394886
 31
0.0
  0
LINE
  5
31A
330
8A
100
AcDbEntity
  8
0
 62
     9
370
    15
100
AcDbLine
 10
181.3300052758954
 20
149.2799963948861
 30
0.0
 11
181.2500052758955
 21
146.9099963948861
 31
0.0
  0
LINE
  5
31B
330
8A
100
AcDbEntity
  8
0
 62
     9
370
    15
100
AcDbLine
 10
181.3300052758954
 20
150.8999963948861
 30
0.0
 11
181.3300052758954
 21
149.2799963948861
 31
0.0
  0
MTEXT
  5
31C
330
8A
100
AcDbEntity
  8
0
 62
     9
100
AcDbMText
 10
21.54000527589551
 20
156.079996394886
 30
0.0
 40
3.5
 41
0.0
 71
     1
 72
     1
  1
A
  7
Geneva
 73
     1
 44
1.0
1001
ACAD
1000
MTEXTBEGIN
1070
    73
1070
     1
1070
    44
1040
1.0
1070
    74
1070
     0
1000
MTEXTEND
  0
LINE
  5
31D
330
8A
100
AcDbEntity
  8
0
 62
     9
370
    15
100
AcDbLine
 10
26.3000052758955
 20
155.5099963948861
 30
0.0
 11
26.47000527589546
 21
157.179996394886
 31
0.0
  0
LINE
  5
31E
330
8A
100
AcDbEntity
  8
0
 62
     9
370
    15
100
AcDbLine
 10
26.14000527589548
 20
153.1599963948861
 30
0.0
 11
26.3000052758955
 21
155.5099963948861
 31
0.0
  0
LINE
  5
31F
330
8A
100
AcDbEntity
  8
0
 62
     9
370
    15
100
AcDbLine
 10
26.08000527589548
 20
150.8499963948861
 30
0.0
 11
26.14000527589548
 21
153.1599963948861
 31
0.0
  0
LINE
  5
320
330
8A
100
AcDbEntity
  8
0
 62
     9
370
    15
100
AcDbLine
 10
26.10000527589547
 20
148.569996394886
 30
0.0
 11
26.08000527589548
 21
150.8499963948861
 31
0.0
  0
LINE
  5
321
330
8A
100
AcDbEntity
  8
0
 62
     9
370
    15
100
AcDbLine
 10
26.21000527589547
 20
146.319996394886
 30
0.0
 11
26.10000527589547
 21
148.569996394886
 31
0.0
  0
LINE
  5
322
330
8A
100
AcDbEntity
  8
0
 62
     9
370
    15
100
AcDbLine
 10
26.40000527589547
 20
144.0999963948861
 30
0.0
 11
26.21000527589547
 21
146.319996394886
 31
0.0
  0
CIRCLE
  5
323
330
8A
100
AcDbEntity
  8
0
 62
     7
370
    15
100
AcDbCircle
 10
26.40000527589547
 20
144.0999963948861
 30
0.0
 40
1.0
  0
LINE
  5
324
330
8A
100
AcDbEntity
  8
0
 62
     9
370
    15
100
AcDbLine
 10
26.6700052758955
 20
141.9199963948861
 30
0.0
 11
26.40000527589547
 21
144.0999963948861
 31
0.0
  0
LINE
  5
325
330
8A
100
AcDbEntity
  8
0
 62
     9
370
    15
100
AcDbLine
 10
27.01000527589548
 20
139.7699963948861
 30
0.0
 11
26.6700052758955
 21
141.9199963948861
 31
0.0
  0
LINE
  5
326
330
8A
100
AcDbEntity
  8
0
 62
     9
370
    15
100
AcDbLine
 10
27.4300052758955
 20
137.6599963948861
 30
0.0
 11
27.01000527589548
 21
139.7699963948861
 31
0.0
  0
LINE
  5
327
330
8A
100
AcDbEntity
  8
0
 62
     9
370
    15
100
AcDbLine
 10
27.9200052758955
 20
135.589996394886
 30
0.0
 11
27.4300052758955
 21
137.6599963948861
 31
0.0
  0
LINE
  5
328
330
8A
100
AcDbEntity
  8
0
 62
     9
370
    15
100
AcDbLine
 10
28.47000527589547
 20
133.559996394886
 30
0.0
 11
27.9200052758955
 21
135.589996394886
 31
0.0
  0
LINE
  5
329
330
8A
100
AcDbEntity
  8
0
 62
     9
370
    15
100
AcDbLine
 10
29.08000527589548
 20
131.569996394886
 30
0.0
 11
28.47000527589547
 21
133.559996394886
 31
0.0
  0
LINE
  5
32A
330
8A
100
AcDbEntity
  8
0
 62
     9
370
    15
100
AcDbLine
 10
29.76000527589548
 20
129.6199963948861
 30
0.0
 11
29.08000527589548
 21
131.569996394886
 31
0.0
  0
LINE
  5
32B
330
8A
100
AcDbEntity
  8
0
 62
     9
370
    15
100
AcDbLine
 10
30.50000527589549
 20
127.709996394886
 30
0.0
 11
29.76000527589548
 21
129.6199963948861
 31
0.0
  0
CIRCLE
  5
32C
330
8A
100
AcDbEntity
  8
0
 62
     7
370
    15
100
AcDbCircle
 10
30.50000527589549
 20
127.709996394886
 30
0.0
 40
1.0
  0
LINE
  5
32D
330
8A
100
AcDbEntity
  8
0
 62
     9
370
    15
100
AcDbLine
 10
31.29000527589551
 20
125.8399963948861
 30
0.0
 11
30.50000527589549
 21
127.709996394886
 31
0.0
  0
LINE
  5
32E
330
8A
100
AcDbEntity
  8
0
 62
     9
370
    15
100
AcDbLine
 10
32.14000527589548
 20
124.0199963948861
 30
0.0
 11
31.29000527589551
 21
125.8399963948861
 31
0.0
  0
LINE
  5
32F
330
8A
100
AcDbEntity
  8
0
 62
     9
370
    15
100
AcDbLine
 10
33.04000527589551
 20
122.239996394886
 30
0.0
 11
32.14000527589548
 21
124.0199963948861
 31
0.0
  0
LINE
  5
330
330
8A
100
AcDbEntity
  8
0
 62
     9
370
    15
100
AcDbLine
 10
33.9900052758955
 20
120.499996394886
 30
0.0
 11
33.04000527589551
 21
122.239996394886
 31
0.0
  0
LINE
  5
331
330
8A
100
AcDbEntity
  8
0
 62
     9
370
    15
100
AcDbLine
 10
34.9900052758955
 20
118.799996394886
 30
0.0
 11
33.9900052758955
 21
120.499996394886
 31
0.0
  0
LINE
  5
332
330
8A
100
AcDbEntity
  8
0
 62
     9
370
    15
100
AcDbLine
 10
36.03000527589553
 20
117.1399963948861
 30
0.0
 11
34.9900052758955
 21
118.799996394886
 31
0.0
  0
LINE
  5
333
330
8A
100
AcDbEntity
  8
0
 62
     9
370
    15
100
AcDbLine
 10
37.11000527589551
 20
115.5299963948861
 30
0.0
 11
36.03000527589553
 21
117.1399963948861
 31
0.0
  0
LINE
  5
334
330
8A
100
AcDbEntity
  8
0
 62
     9
370
    15
100
AcDbLine
 10
38.2400052758955
 20
113.959996394886
 30
0.0
 11
37.11000527589551
 21
115.5299963948861
 31
0.0
  0
CIRCLE
  5
335
330
8A
100
AcDbEntity
  8
0
 62
     7
370
    15
100
AcDbCircle
 10
38.2400052758955
 20
113.959996394886
 30
0.0
 40
1.0
  0
LINE
  5
336
330
8A
100
AcDbEntity
  8
0
 62
     9
370
    15
100
AcDbLine
 10
39.41000527589551
 20
112.429996394886
 30
0.0
 11
38.2400052758955
 21
113.959996394886
 31
0.0
  0
LINE
  5
337
330
8A
100
AcDbEntity
  8
0
 62
     9
370
    15
100
AcDbLine
 10
40.6100052758955
 20
110.939996394886
 30
0.0
 11
39.41000527589551
 21
112.429996394886
 31
0.0
  0
LINE
  5
338
330
8A
100
AcDbEntity
  8
0
 62
     9
370
    15
100
AcDbLine
 10
41.85000527589545
 20
109.4999963948861
 30
0.0
 11
40.6100052758955
 21
110.939996394886
 31
0.0
  0
LINE
  5
339
330
8A
100
AcDbEntity
  8
0
 62
     9
370
    15
100
AcDbLine
 10
43.13000527589547
 20
108.0999963948861
 30
0.0
 11
41.85000527589545
 21
109.4999963948861
 31
0.0
  0
LINE
  5
33A
330
8A
100
AcDbEntity
  8
0
 62
     9
370
    15
100
AcDbLine
 10
44.43000527589549
 20
106.739996394886
 30
0.0
 11
43.13000527589547
 21
108.0999963948861
 31
0.0
  0
LINE
  5
33B
330
8A
100
AcDbEntity
  8
0
 62
     9
370
    15
100
AcDbLine
 10
45.77000527589547
 20
105.4199963948861
 30
0.0
 11
44.43000527589549
 21
106.739996394886
 31
0.0
  0
LINE
  5
33C
330
8A
100
AcDbEntity
  8
0
 62
     9
370
    15
100
AcDbLine
 10
47.14000527589546
 20
104.1499963948861
 30
0.0
 11
45.77000527589547
 21
105.4199963948861
 31
0.0
  0
LINE
  5
33D
330
8A
100
AcDbEntity
  8
0
 62
     9
370
    15
100
AcDbLine
 10
48.54000527589551
 20
102.9099963948861
 30
0.0
 11
47.14000527589546
 21
104.1499963948861
 31
0.0
  0
CIRCLE
  5
33E
330
8A
100
AcDbEntity
  8
0
 62
     7
370
    15
100
AcDbCircle
 10
48.54000527589551
 20
102.9099963948861
 30
0.0
 40
1.0
  0
LINE
  5
33F
330
8A
100
AcDbEntity
  8
0
 62
     9
370
    15
100
AcDbLine
 10
49.96000527589547
 20
101.7199963948861
 30
0.0
 11
48.54000527589551
 21
102.9099963948861
 31
0.0
  0
LINE
  5
340
330
8A
100
AcDbEntity
  8
0
 62
     9
370
    15
100
AcDbLine
 10
51.4100052758955
 20
100.569996394886
 30
0.0
 11
49.96000527589547
 21
101.7199963948861
 31
0.0
  0
LINE
  5
341
330
8A
100
AcDbEntity
  8
0
 62
     9
370
    15
100
AcDbLine
 10
52.88000527589549
 20
99.44999639488607
 30
0.0
 11
51.4100052758955
 21
100.569996394886
 31
0.0
  0
LINE
  5
342
330
8A
100
AcDbEntity
  8
0
 62
     9
370
    15
100
AcDbLine
 10
54.38000527589547
 20
98.37999639488607
 30
0.0
 11
52.88000527589549
 21
99.44999639488607
 31
0.0
  0
LINE
  5
343
330
8A
100
AcDbEntity
  8
0
 62
     9
370
    15
100
AcDbLine
 10
55.90000527589552
 20
97.34999639488608
 30
0.0
 11
54.38000527589547
 21
98.37999639488607
 31
0.0
  0
LINE
  5
344
330
8A
100
AcDbEntity
  8
0
 62
     9
370
    15
100
AcDbLine
 10
57.44000527589548
 20
96.35999639488607
 30
0.0
 11
55.90000527589552
 21
97.34999639488608
 31
0.0
  0
LINE
  5
345
330
8A
100
AcDbEntity
  8
0
 62
     9
370
    15
100
AcDbLine
 10
59.00000527589549
 20
95.40999639488608
 30
0.0
 11
57.44000527589548
 21
96.35999639488607
 31
0.0
  0
LINE
  5
346
330
8A
100
AcDbEntity
  8
0
 62
     9
370
    15
100
AcDbLine
 10
60.58000527589547
 20
94.49999639488607
 30
0.0
 11
59.00000527589549
 21
95.40999639488608
 31
0.0
  0
CIRCLE
  5
347
330
8A
100
AcDbEntity
  8
0
 62
     7
370
    15
100
AcDbCircle
 10
60.58000527589547
 20
94.49999639488607
 30
0.0
 40
1.0
  0
LINE
  5
348
330
8A
100
AcDbEntity
  8
0
 62
     9
370
    15
100
AcDbLine
 10
62.18000527589548
 20
93.61999639488606
 30
0.0
 11
60.58000527589547
 21
94.49999639488607
 31
0.0
  0
LINE
  5
349
330
8A
100
AcDbEntity
  8
0
 62
     9
370
    15
100
AcDbLine
 10
63.8000052758955
 20
92.78999639488608
 30
0.0
 11
62.18000527589548
 21
93.61999639488606
 31
0.0
  0
LINE
  5
34A
330
8A
100
AcDbEntity
  8
0
 62
     9
370
    15
100
AcDbLine
 10
65.43000527589549
 20
91.98999639488608
 30
0.0
 11
63.8000052758955
 21
92.78999639488608
 31
0.0
  0
LINE
  5
34B
330
8A
100
AcDbEntity
  8
0
 62
     9
370
    15
100
AcDbLine
 10
67.07000527589548
 20
91.23999639488607
 30
0.0
 11
65.43000527589549
 21
91.98999639488608
 31
0.0
  0
LINE
  5
34C
330
8A
100
AcDbEntity
  8
0
 62
     9
370
    15
100
AcDbLine
 10
68.7300052758955
 20
90.51999639488613
 30
0.0
 11
67.07000527589548
 21
91.23999639488607
 31
0.0
  0
LINE
  5
34D
330
8A
100
AcDbEntity
  8
0
 62
     9
370
    15
100
AcDbLine
 10
70.41000527589551
 20
89.8399963948861
 30
0.0
 11
68.7300052758955
 21
90.51999639488613
 31
0.0
  0
LINE
  5
34E
330
8A
100
AcDbEntity
  8
0
 62
     9
370
    15
100
AcDbLine
 10
72.09000527589545
 20
89.19999639488606
 30
0.0
 11
70.41000527589551
 21
89.8399963948861
 31
0.0
  0
LINE
  5
34F
330
8A
100
AcDbEntity
  8
0
 62
     9
370
    15
100
AcDbLine
 10
73.79000527589552
 20
88.5899963948861
 30
0.0
 11
72.09000527589545
 21
89.19999639488606
 31
0.0
  0
CIRCLE
  5
350
330
8A
100
AcDbEntity
  8
0
 62
     7
370
    15
100
AcDbCircle
 10
73.79000527589552
 20
88.5899963948861
 30
0.0
 40
1.0
  0
LINE
  5
351
330
8A
100
AcDbEntity
  8
0
 62
     9
370
    15
100
AcDbLine
 10
75.50000527589547
 20
88.01999639488611
 30
0.0
 11
73.79000527589552
 21
88.5899963948861
 31
0.0
  0
LINE
  5
352
330
8A
100
AcDbEntity
  8
0
 62
     9
370
    15
100
AcDbLine
 10
77.22000527589544
 20
87.49999639488605
 30
0.0
 11
75.50000527589547
 21
88.01999639488611
 31
0.0
  0
LINE
  5
353
330
8A
100
AcDbEntity
  8
0
 62
     9
370
    15
100
AcDbLine
 10
78.94000527589549
 20
86.99999639488606
 30
0.0
 11
77.22000527589544
 21
87.49999639488605
 31
0.0
  0
LINE
  5
354
330
8A
100
AcDbEntity
  8
0
 62
     9
370
    15
100
AcDbLine
 10
80.6800052758955
 20
86.54999639488606
 30
0.0
 11
78.94000527589549
 21
86.99999639488606
 31
0.0
  0
LINE
  5
355
330
8A
100
AcDbEntity
  8
0
 62
     9
370
    15
100
AcDbLine
 10
82.43000527589549
 20
86.12999639488604
 30
0.0
 11
80.6800052758955
 21
86.54999639488606
 31
0.0
  0
LINE
  5
356
330
8A
100
AcDbEntity
  8
0
 62
     9
370
    15
100
AcDbLine
 10
84.18000527589548
 20
85.74999639488607
 30
0.0
 11
82.43000527589549
 21
86.12999639488604
 31
0.0
  0
LINE
  5
357
330
8A
100
AcDbEntity
  8
0
 62
     9
370
    15
100
AcDbLine
 10
85.9300052758955
 20
85.39999639488611
 30
0.0
 11
84.18000527589548
 21
85.74999639488607
 31
0.0
  0
LINE
  5
358
330
8A
100
AcDbEntity
  8
0
 62
     9
370
    15
100
AcDbLine
 10
87.70000527589548
 20
85.0999963948861
 30
0.0
 11
85.9300052758955
 21
85.39999639488611
 31
0.0
  0
CIRCLE
  5
359
330
8A
100
AcDbEntity
  8
0
 62
     7
370
    15
100
AcDbCircle
 10
87.70000527589548
 20
85.0999963948861
 30
0.0
 40
1.0
  0
LINE
  5
35A
330
8A
100
AcDbEntity
  8
0
 62
     9
370
    15
100
AcDbLine
 10
89.47000527589546
 20
84.81999639488606
 30
0.0
 11
87.70000527589548
 21
85.0999963948861
 31
0.0
  0
LINE
  5
35B
330
8A
100
AcDbEntity
  8
0
 62
     9
370
    15
100
AcDbLine
 10
91.24000527589549
 20
84.5899963948861
 30
0.0
 11
89.47000527589546
 21
84.81999639488606
 31
0.0
  0
LINE
  5
35C
330
8A
100
AcDbEntity
  8
0
 62
     9
370
    15
100
AcDbLine
 10
93.02000527589546
 20
84.38999639488612
 30
0.0
 11
91.24000527589549
 21
84.5899963948861
 31
0.0
  0
LINE
  5
35D
330
8A
100
AcDbEntity
  8
0
 62
     9
370
    15
100
AcDbLine
 10
94.80000527589551
 20
84.22999639488606
 30
0.0
 11
93.02000527589546
 21
84.38999639488612
 31
0.0
  0
LINE
  5
35E
330
8A
100
AcDbEntity
  8
0
 62
     9
370
    15
100
AcDbLine
 10
96.5800052758955
 20
84.09999639488608
 30
0.0
 11
94.80000527589551
 21
84.22999639488606
 31
0.0
  0
LINE
  5
35F
330
8A
100
AcDbEntity
  8
0
 62
     9
370
    15
100
AcDbLine
 10
98.3700052758955
 20
84.00999639488606
 30
0.0
 11
96.5800052758955
 21
84.09999639488608
 31
0.0
  0
LINE
  5
360
330
8A
100
AcDbEntity
  8
0
 62
     9
370
    15
100
AcDbLine
 10
100.1500052758954
 20
83.95999639488605
 30
0.0
 11
98.3700052758955
 21
84.00999639488606
 31
0.0
  0
LINE
  5
361
330
8A
100
AcDbEntity
  8
0
 62
     9
370
    15
100
AcDbLine
 10
101.9400052758955
 20
83.93999639488606
 30
0.0
 11
100.1500052758954
 21
83.95999639488605
 31
0.0
  0
CIRCLE
  5
362
330
8A
100
AcDbEntity
  8
0
 62
     7
370
    15
100
AcDbCircle
 10
101.9400052758955
 20
83.93999639488606
 30
0.0
 40
1.0
  0
LINE
  5
363
330
8A
100
AcDbEntity
  8
0
 62
     9
370
    15
100
AcDbLine
 10
103.7300052758955
 20
83.95999639488605
 30
0.0
 11
101.9400052758955
 21
83.93999639488606
 31
0.0
  0
LINE
  5
364
330
8A
100
AcDbEntity
  8
0
 62
     9
370
    15
100
AcDbLine
 10
105.5100052758955
 20
84.00999639488606
 30
0.0
 11
103.7300052758955
 21
83.95999639488605
 31
0.0
  0
LINE
  5
365
330
8A
100
AcDbEntity
  8
0
 62
     9
370
    15
100
AcDbLine
 10
107.3000052758955
 20
84.09999639488608
 30
0.0
 11
105.5100052758955
 21
84.00999639488606
 31
0.0
  0
LINE
  5
366
330
8A
100
AcDbEntity
  8
0
 62
     9
370
    15
100
AcDbLine
 10
109.0800052758954
 20
84.22999639488606
 30
0.0
 11
107.3000052758955
 21
84.09999639488608
 31
0.0
  0
LINE
  5
367
330
8A
100
AcDbEntity
  8
0
 62
     9
370
    15
100
AcDbLine
 10
110.8600052758955
 20
84.38999639488612
 30
0.0
 11
109.0800052758954
 21
84.22999639488606
 31
0.0
  0
LINE
  5
368
330
8A
100
AcDbEntity
  8
0
 62
     9
370
    15
100
AcDbLine
 10
112.6400052758955
 20
84.5899963948861
 30
0.0
 11
110.8600052758955
 21
84.38999639488612
 31
0.0
  0
LINE
  5
369
330
8A
100
AcDbEntity
  8
0
 62
     9
370
    15
100
AcDbLine
 10
114.4100052758955
 20
84.81999639488606
 30
0.0
 11
112.6400052758955
 21
84.5899963948861
 31
0.0
  0
LINE
  5
36A
330
8A
100
AcDbEntity
  8
0
 62
     9
370
    15
100
AcDbLine
 10
116.1800052758955
 20
85.0999963948861
 30
0.0
 11
114.4100052758955
 21
84.81999639488606
 31
0.0
  0
CIRCLE
  5
36B
330
8A
100
AcDbEntity
  8
0
 62
     7
370
    15
100
AcDbCircle
 10
116.1800052758955
 20
85.0999963948861
 30
0.0
 40
1.0
  0
LINE
  5
36C
330
8A
100
AcDbEntity
  8
0
 62
     9
370
    15
100
AcDbLine
 10
117.9500052758954
 20
85.39999639488611
 30
0.0
 11
116.1800052758955
 21
85.0999963948861
 31
0.0
  0
LINE
  5
36D
330
8A
100
AcDbEntity
  8
0
 62
     9
370
    15
100
AcDbLine
 10
119.7000052758955
 20
85.74999639488607
 30
0.0
 11
117.9500052758954
 21
85.39999639488611
 31
0.0
  0
LINE
  5
36E
330
8A
100
AcDbEntity
  8
0
 62
     9
370
    15
100
AcDbLine
 10
121.4500052758955
 20
86.12999639488604
 30
0.0
 11
119.7000052758955
 21
85.74999639488607
 31
0.0
  0
LINE
  5
36F
330
8A
100
AcDbEntity
  8
0
 62
     9
370
    15
100
AcDbLine
 10
123.2000052758954
 20
86.54999639488606
 30
0.0
 11
121.4500052758955
 21
86.12999639488604
 31
0.0
  0
LINE
  5
370
330
8A
100
AcDbEntity
  8
0
 62
     9
370
    15
100
AcDbLine
 10
124.9400052758955
 20
86.99999639488606
 30
0.0
 11
123.2000052758954
 21
86.54999639488606
 31
0.0
  0
LINE
  5
371
330
8A
100
AcDbEntity
  8
0
 62
     9
370
    15
100
AcDbLine
 10
126.6600052758955
 20
87.49999639488605
 30
0.0
 11
124.9400052758955
 21
86.99999639488606
 31
0.0
  0
LINE
  5
372
330
8A
100
AcDbEntity
  8
0
 62
     9
370
    15
100
AcDbLine
 10
128.3800052758955
 20
88.01999639488611
 30
0.0
 11
126.6600052758955
 21
87.49999639488605
 31
0.0
  0
LINE
  5
373
330
8A
100
AcDbEntity
  8
0
 62
     9
370
    15
100
AcDbLine
 10
130.0900052758954
 20
88.5899963948861
 30
0.0
 11
128.3800052758955
 21
88.01999639488611
 31
0.0
  0
CIRCLE
  5
374
330
8A
100
AcDbEntity
  8
0
 62
     7
370
    15
100
AcDbCircle
 10
130.0900052758954
 20
88.5899963948861
 30
0.0
 40
1.0
  0
LINE
  5
375
330
8A
100
AcDbEntity
  8
0
 62
     9
370
    15
100
AcDbLine
 10
131.7900052758955
 20
89.19999639488606
 30
0.0
 11
130.0900052758954
 21
88.5899963948861
 31
0.0
  0
LINE
  5
376
330
8A
100
AcDbEntity
  8
0
 62
     9
370
    15
100
AcDbLine
 10
133.4700052758954
 20
89.8399963948861
 30
0.0
 11
131.7900052758955
 21
89.19999639488606
 31
0.0
  0
LINE
  5
377
330
8A
100
AcDbEntity
  8
0
 62
     9
370
    15
100
AcDbLine
 10
135.1500052758955
 20
90.51999639488613
 30
0.0
 11
133.4700052758954
 21
89.8399963948861
 31
0.0
  0
LINE
  5
378
330
8A
100
AcDbEntity
  8
0
 62
     9
370
    15
100
AcDbLine
 10
136.8100052758955
 20
91.23999639488607
 30
0.0
 11
135.1500052758955
 21
90.51999639488613
 31
0.0
  0
LINE
  5
379
330
8A
100
AcDbEntity
  8
0
 62
     9
370
    15
100
AcDbLine
 10
138.4500052758955
 20
91.98999639488608
 30
0.0
 11
136.8100052758955
 21
91.23999639488607
 31
0.0
  0
LINE
  5
37A
330
8A
100
AcDbEntity
  8
0
 62
     9
370
    15
100
AcDbLine
 10
140.0800052758954
 20
92.78999639488608
 30
0.0
 11
138.4500052758955
 21
91.98999639488608
 31
0.0
  0
LINE
  5
37B
330
8A
100
AcDbEntity
  8
0
 62
     9
370
    15
100
AcDbLine
 10
141.7000052758955
 20
93.61999639488606
 30
0.0
 11
140.0800052758954
 21
92.78999639488608
 31
0.0
  0
LINE
  5
37C
330
8A
100
AcDbEntity
  8
0
 62
     9
370
    15
100
AcDbLine
 10
143.3000052758955
 20
94.49999639488607
 30
0.0
 11
141.7000052758955
 21
93.61999639488606
 31
0.0
  0
CIRCLE
  5
37D
330
8A
100
AcDbEntity
  8
0
 62
     7
370
    15
100
AcDbCircle
 10
143.3000052758955
 20
94.49999639488607
 30
0.0
 40
1.0
  0
LINE
  5
37E
330
8A
100
AcDbEntity
  8
0
 62
     9
370
    15
100
AcDbLine
 10
144.8800052758955
 20
95.40999639488608
 30
0.0
 11
143.3000052758955
 21
94.49999639488607
 31
0.0
  0
LINE
  5
37F
330
8A
100
AcDbEntity
  8
0
 62
     9
370
    15
100
AcDbLine
 10
146.4400052758955
 20
96.35999639488607
 30
0.0
 11
144.8800052758955
 21
95.40999639488608
 31
0.0
  0
LINE
  5
380
330
8A
100
AcDbEntity
  8
0
 62
     9
370
    15
100
AcDbLine
 10
147.9800052758954
 20
97.34999639488608
 30
0.0
 11
146.4400052758955
 21
96.35999639488607
 31
0.0
  0
LINE
  5
381
330
8A
100
AcDbEntity
  8
0
 62
     9
370
    15
100
AcDbLine
 10
149.5000052758955
 20
98.37999639488607
 30
0.0
 11
147.9800052758954
 21
97.34999639488608
 31
0.0
  0
LINE
  5
382
330
8A
100
AcDbEntity
  8
0
 62
     9
370
    15
100
AcDbLine
 10
151.0000052758955
 20
99.44999639488607
 30
0.0
 11
149.5000052758955
 21
98.37999639488607
 31
0.0
  0
LINE
  5
383
330
8A
100
AcDbEntity
  8
0
 62
     9
370
    15
100
AcDbLine
 10
152.4700052758955
 20
100.569996394886
 30
0.0
 11
151.0000052758955
 21
99.44999639488607
 31
0.0
  0
LINE
  5
384
330
8A
100
AcDbEntity
  8
0
 62
     9
370
    15
100
AcDbLine
 10
153.9200052758955
 20
101.7199963948861
 30
0.0
 11
152.4700052758955
 21
100.569996394886
 31
0.0
  0
LINE
  5
385
330
8A
100
AcDbEntity
  8
0
 62
     9
370
    15
100
AcDbLine
 10
155.3400052758955
 20
102.9099963948861
 30
0.0
 11
153.9200052758955
 21
101.7199963948861
 31
0.0
  0
CIRCLE
  5
386
330
8A
100
AcDbEntity
  8
0
 62
     7
370
    15
100
AcDbCircle
 10
155.3400052758955
 20
102.9099963948861
 30
0.0
 40
1.0
  0
LINE
  5
387
330
8A
100
AcDbEntity
  8
0
 62
     9
370
    15
100
AcDbLine
 10
156.7400052758955
 20
104.1499963948861
 30
0.0
 11
155.3400052758955
 21
102.9099963948861
 31
0.0
  0
LINE
  5
388
330
8A
100
AcDbEntity
  8
0
 62
     9
370
    15
100
AcDbLine
 10
158.1100052758954
 20
105.4199963948861
 30
0.0
 11
156.7400052758955
 21
104.1499963948861
 31
0.0
  0
LINE
  5
389
330
8A
100
AcDbEntity
  8
0
 62
     9
370
    15
100
AcDbLine
 10
159.4500052758955
 20
106.739996394886
 30
0.0
 11
158.1100052758954
 21
105.4199963948861
 31
0.0
  0
LINE
  5
38A
330
8A
100
AcDbEntity
  8
0
 62
     9
370
    15
100
AcDbLine
 10
160.7500052758955
 20
108.0999963948861
 30
0.0
 11
159.4500052758955
 21
106.739996394886
 31
0.0
  0
LINE
  5
38B
330
8A
100
AcDbEntity
  8
0
 62
     9
370
    15
100
AcDbLine
 10
162.0300052758955
 20
109.4999963948861
 30
0.0
 11
160.7500052758955
 21
108.0999963948861
 31
0.0
  0
LINE
  5
38C
330
8A
100
AcDbEntity
  8
0
 62
     9
370
    15
100
AcDbLine
 10
163.2700052758955
 20
110.939996394886
 30
0.0
 11
162.0300052758955
 21
109.4999963948861
 31
0.0
  0
LINE
  5
38D
330
8A
100
AcDbEntity
  8
0
 62
     9
370
    15
100
AcDbLine
 10
164.4700052758954
 20
112.429996394886
 30
0.0
 11
163.2700052758955
 21
110.939996394886
 31
0.0
  0
LINE
  5
38E
330
8A
100
AcDbEntity
  8
0
 62
     9
370
    15
100
AcDbLine
 10
165.6400052758955
 20
113.959996394886
 30
0.0
 11
164.4700052758954
 21
112.429996394886
 31
0.0
  0
CIRCLE
  5
38F
330
8A
100
AcDbEntity
  8
0
 62
     7
370
    15
100
AcDbCircle
 10
165.6400052758955
 20
113.959996394886
 30
0.0
 40
1.0
  0
LINE
  5
390
330
8A
100
AcDbEntity
  8
0
 62
     9
370
    15
100
AcDbLine
 10
166.7700052758955
 20
115.5299963948861
 30
0.0
 11
165.6400052758955
 21
113.959996394886
 31
0.0
  0
LINE
  5
391
330
8A
100
AcDbEntity
  8
0
 62
     9
370
    15
100
AcDbLine
 10
167.8500052758955
 20
117.1399963948861
 30
0.0
 11
166.7700052758955
 21
115.5299963948861
 31
0.0
  0
LINE
  5
392
330
8A
100
AcDbEntity
  8
0
 62
     9
370
    15
100
AcDbLine
 10
168.8900052758955
 20
118.799996394886
 30
0.0
 11
167.8500052758955
 21
117.1399963948861
 31
0.0
  0
LINE
  5
393
330
8A
100
AcDbEntity
  8
0
 62
     9
370
    15
100
AcDbLine
 10
169.8900052758955
 20
120.499996394886
 30
0.0
 11
168.8900052758955
 21
118.799996394886
 31
0.0
  0
LINE
  5
394
330
8A
100
AcDbEntity
  8
0
 62
     9
370
    15
100
AcDbLine
 10
170.8400052758955
 20
122.239996394886
 30
0.0
 11
169.8900052758955
 21
120.499996394886
 31
0.0
  0
LINE
  5
395
330
8A
100
AcDbEntity
  8
0
 62
     9
370
    15
100
AcDbLine
 10
171.7400052758955
 20
124.0199963948861
 30
0.0
 11
170.8400052758955
 21
122.239996394886
 31
0.0
  0
LINE
  5
396
330
8A
100
AcDbEntity
  8
0
 62
     9
370
    15
100
AcDbLine
 10
172.5900052758955
 20
125.8399963948861
 30
0.0
 11
171.7400052758955
 21
124.0199963948861
 31
0.0
  0
LINE
  5
397
330
8A
100
AcDbEntity
  8
0
 62
     9
370
    15
100
AcDbLine
 10
173.3800052758955
 20
127.709996394886
 30
0.0
 11
172.5900052758955
 21
125.8399963948861
 31
0.0
  0
CIRCLE
  5
398
330
8A
100
AcDbEntity
  8
0
 62
     7
370
    15
100
AcDbCircle
 10
173.3800052758955
 20
127.709996394886
 30
0.0
 40
1.0
  0
LINE
  5
399
330
8A
100
AcDbEntity
  8
0
 62
     9
370
    15
100
AcDbLine
 10
174.1200052758955
 20
129.6199963948861
 30
0.0
 11
173.3800052758955
 21
127.709996394886
 31
0.0
  0
LINE
  5
39A
330
8A
100
AcDbEntity
  8
0
 62
     9
370
    15
100
AcDbLine
 10
174.8000052758955
 20
131.569996394886
 30
0.0
 11
174.1200052758955
 21
129.6199963948861
 31
0.0
  0
LINE
  5
39B
330
8A
100
AcDbEntity
  8
0
 62
     9
370
    15
100
AcDbLine
 10
175.4100052758955
 20
133.559996394886
 30
0.0
 11
174.8000052758955
 21
131.569996394886
 31
0.0
  0
LINE
  5
39C
330
8A
100
AcDbEntity
  8
0
 62
     9
370
    15
100
AcDbLine
 10
175.9600052758955
 20
135.589996394886
 30
0.0
 11
175.4100052758955
 21
133.559996394886
 31
0.0
  0
LINE
  5
39D
330
8A
100
AcDbEntity
  8
0
 62
     9
370
    15
100
AcDbLine
 10
176.4500052758954
 20
137.6599963948861
 30
0.0
 11
175.9600052758955
 21
135.589996394886
 31
0.0
  0
LINE
  5
39E
330
8A
100
AcDbEntity
  8
0
 62
     9
370
    15
100
AcDbLine
 10
176.8700052758955
 20
139.7699963948861
 30
0.0
 11
176.4500052758954
 21
137.6599963948861
 31
0.0
  0
LINE
  5
39F
330
8A
100
AcDbEntity
  8
0
 62
     9
370
    15
100
AcDbLine
 10
177.2100052758955
 20
141.9199963948861
 30
0.0
 11
176.8700052758955
 21
139.7699963948861
 31
0.0
  0
LINE
  5
3A0
330
8A
100
AcDbEntity
  8
0
 62
     9
370
    15
100
AcDbLine
 10
177.4800052758955
 20
144.0999963948861
 30
0.0
 11
177.2100052758955
 21
141.9199963948861
 31
0.0
  0
CIRCLE
  5
3A1
330
8A
100
AcDbEntity
  8
0
 62
     7
370
    15
100
AcDbCircle
 10
177.4800052758955
 20
144.0999963948861
 30
0.0
 40
1.0
  0
LINE
  5
3A2
330
8A
100
AcDbEntity
  8
0
 62
     9
370
    15
100
AcDbLine
 10
177.6700052758954
 20
146.319996394886
 30
0.0
 11
177.4800052758955
 21
144.0999963948861
 31
0.0
  0
LINE
  5
3A3
330
8A
100
AcDbEntity
  8
0
 62
     9
370
    15
100
AcDbLine
 10
177.7800052758955
 20
148.569996394886
 30
0.0
 11
177.6700052758954
 21
146.319996394886
 31
0.0
  0
LINE
  5
3A4
330
8A
100
AcDbEntity
  8
0
 62
     9
370
    15
100
AcDbLine
 10
177.8000052758955
 20
150.8499963948861
 30
0.0
 11
177.7800052758955
 21
148.569996394886
 31
0.0
  0
LINE
  5
3A5
330
8A
100
AcDbEntity
  8
0
 62
     9
370
    15
100
AcDbLine
 10
177.7400052758955
 20
153.1599963948861
 30
0.0
 11
177.8000052758955
 21
150.8499963948861
 31
0.0
  0
LINE
  5
3A6
330
8A
100
AcDbEntity
  8
0
 62
     9
370
    15
100
AcDbLine
 10
177.5800052758954
 20
155.5099963948861
 30
0.0
 11
177.7400052758955
 21
153.1599963948861
 31
0.0
  0
LINE
  5
3A7
330
8A
100
AcDbEntity
  8
0
 62
     9
370
    15
100
AcDbLine
 10
177.4100052758955
 20
157.179996394886
 30
0.0
 11
177.5800052758954
 21
155.5099963948861
 31
0.0
  0
LINE
  5
3A8
330
8A
100
AcDbEntity
  8
0
 62
    21
370
    15
100
AcDbLine
 10
101.9400052758955
 20
105.7999963948861
 30
0.0
 11
86.09000527589547
 21
15.87999639488606
 31
0.0
  0
LINE
  5
3A9
330
8A
100
AcDbEntity
  8
0
 62
    21
370
    15
100
AcDbLine
 10
101.9400052758955
 20
105.7999963948861
 30
0.0
 11
70.71000527589546
 21
19.99999639488606
 31
0.0
  0
MTEXT
  5
3AA
330
8A
100
AcDbEntity
  8
0
 62
    21
100
AcDbMText
 10
41.43000527589548
 20
16.58999639488604
 30
0.0
 40
3.5
 41
0.0
 71
     1
 72
     1
  1
-30
  7
Geneva
 73
     1
 44
1.0
1001
ACAD
1000
MTEXTBEGIN
1070
    73
1070
     1
1070
    44
1040
1.0
1070
    74
1070
     0
1000
MTEXTEND
  0
LINE
  5
3AB
330
8A
100
AcDbEntity
  8
0
 62
    21
370
    15
100
AcDbLine
 10
101.9400052758955
 20
105.7999963948861
 30
0.0
 11
56.29000527589551
 21
26.72999639488609
 31
0.0
  0
LINE
  5
3AC
330
8A
100
AcDbEntity
  8
0
 62
    21
370
    15
100
AcDbLine
 10
101.9400052758955
 20
105.7999963948861
 30
0.0
 11
43.25000527589549
 21
35.85999639488608
 31
0.0
  0
LINE
  5
3AD
330
8A
100
AcDbEntity
  8
0
 62
    21
370
    15
100
AcDbLine
 10
101.9400052758955
 20
105.7999963948861
 30
0.0
 11
32.00000527589549
 21
47.10999639488608
 31
0.0
  0
MTEXT
  5
3AE
330
8A
100
AcDbEntity
  8
0
 62
    21
100
AcDbMText
 10
5.670005275895505
 20
52.34999639488609
 30
0.0
 40
3.5
 41
0.0
 71
     1
 72
     1
  1
-60
  7
Geneva
 73
     1
 44
1.0
1001
ACAD
1000
MTEXTBEGIN
1070
    73
1070
     1
1070
    44
1040
1.0
1070
    74
1070
     0
1000
MTEXTEND
  0
LINE
  5
3AF
330
8A
100
AcDbEntity
  8
0
 62
    21
370
    15
100
AcDbLine
 10
101.9400052758955
 20
105.7999963948861
 30
0.0
 11
22.87000527589549
 21
60.1499963948861
 31
0.0
  0
LINE
  5
3B0
330
8A
100
AcDbEntity
  8
0
 62
    21
370
    15
100
AcDbLine
 10
101.9400052758955
 20
105.7999963948861
 30
0.0
 11
16.14000527589547
 21
74.56999639488606
 31
0.0
  0
LINE
  5
3B1
330
8A
100
AcDbEntity
  8
0
 62
    21
370
    15
100
AcDbLine
 10
101.9400052758955
 20
105.7999963948861
 30
0.0
 11
12.02000527589547
 21
89.94999639488606
 31
0.0
  0
MTEXT
  5
3B2
330
8A
100
AcDbEntity
  8
0
 62
    21
100
AcDbMText
 10
0.0000052758954894
 20
102.949996394886
 30
0.0
 40
3.5
 41
0.0
 71
     1
 72
     1
  1
W
  7
Geneva
 73
     1
 44
1.0
1001
ACAD
1000
MTEXTBEGIN
1070
    73
1070
     1
1070
    44
1040
1.0
1070
    74
1070
     0
1000
MTEXTEND
  0
LINE
  5
3B3
330
8A
100
AcDbEntity
  8
0
 62
    21
370
    15
100
AcDbLine
 10
101.9400052758955
 20
105.7999963948861
 30
0.0
 11
10.64000527589547
 21
105.7999963948861
 31
0.0
  0
LINE
  5
3B4
330
8A
100
AcDbEntity
  8
0
 62
    21
370
    15
100
AcDbLine
 10
101.9400052758955
 20
105.7999963948861
 30
0.0
 11
12.02000527589547
 21
121.6499963948861
 31
0.0
  0
LINE
  5
3B5
330
8A
100
AcDbEntity
  8
0
 62
    21
370
    15
100
AcDbLine
 10
101.9400052758955
 20
105.7999963948861
 30
0.0
 11
16.14000527589547
 21
137.0299963948861
 31
0.0
  0
MTEXT
  5
3B6
330
8A
100
AcDbEntity
  8
0
 62
    21
100
AcDbMText
 10
3.5500052758955
 20
153.5399963948861
 30
0.0
 40
3.5
 41
0.0
 71
     1
 72
     1
  1
-120
  7
Geneva
 73
     1
 44
1.0
1001
ACAD
1000
MTEXTBEGIN
1070
    73
1070
     1
1070
    44
1040
1.0
1070
    74
1070
     0
1000
MTEXTEND
  0
LINE
  5
3B7
330
8A
100
AcDbEntity
  8
0
 62
    21
370
    15
100
AcDbLine
 10
101.9400052758955
 20
105.7999963948861
 30
0.0
 11
22.87000527589549
 21
151.449996394886
 31
0.0
  0
LINE
  5
3B8
330
8A
100
AcDbEntity
  8
0
 62
    21
370
    15
100
AcDbLine
 10
101.9400052758955
 20
105.7999963948861
 30
0.0
 11
32.00000527589549
 21
164.489996394886
 31
0.0
  0
LINE
  5
3B9
330
8A
100
AcDbEntity
  8
0
 62
    21
370
    15
100
AcDbLine
 10
101.9400052758955
 20
105.7999963948861
 30
0.0
 11
43.25000527589549
 21
175.739996394886
 31
0.0
  0
MTEXT
  5
3BA
330
8A
100
AcDbEntity
  8
0
 62
    21
100
AcDbMText
 10
39.31000527589549
 20
189.2999963948861
 30
0.0
 40
3.5
 41
0.0
 71
     1
 72
     1
  1
-150
  7
Geneva
 73
     1
 44
1.0
1001
ACAD
1000
MTEXTBEGIN
1070
    73
1070
     1
1070
    44
1040
1.0
1070
    74
1070
     0
1000
MTEXTEND
  0
LINE
  5
3BB
330
8A
100
AcDbEntity
  8
0
 62
    21
370
    15
100
AcDbLine
 10
101.9400052758955
 20
105.7999963948861
 30
0.0
 11
56.29000527589551
 21
184.8699963948861
 31
0.0
  0
LINE
  5
3BC
330
8A
100
AcDbEntity
  8
0
 62
    21
370
    15
100
AcDbLine
 10
101.9400052758955
 20
105.7999963948861
 30
0.0
 11
70.71000527589546
 21
191.5999963948861
 31
0.0
  0
LINE
  5
3BD
330
8A
100
AcDbEntity
  8
0
 62
    21
370
    15
100
AcDbLine
 10
101.9400052758955
 20
105.7999963948861
 30
0.0
 11
86.09000527589547
 21
195.719996394886
 31
0.0
  0
MTEXT
  5
3BE
330
8A
100
AcDbEntity
  8
0
 62
    21
100
AcDbMText
 10
99.82000527589548
 20
202.3899963948861
 30
0.0
 40
3.5
 41
0.0
 71
     1
 72
     1
  1
N
  7
Geneva
 73
     1
 44
1.0
1001
ACAD
1000
MTEXTBEGIN
1070
    73
1070
     1
1070
    44
1040
1.0
1070
    74
1070
     0
1000
MTEXTEND
  0
LINE
  5
3BF
330
8A
100
AcDbEntity
  8
0
 62
    21
370
    15
100
AcDbLine
 10
101.9400052758955
 20
105.7999963948861
 30
0.0
 11
101.9400052758955
 21
197.0999963948861
 31
0.0
  0
LINE
  5
3C0
330
8A
100
AcDbEntity
  8
0
 62
    21
370
    15
100
AcDbLine
 10
101.9400052758955
 20
105.7999963948861
 30
0.0
 11
117.7900052758955
 21
195.719996394886
 31
0.0
  0
LINE
  5
3C1
330
8A
100
AcDbEntity
  8
0
 62
    21
370
    15
100
AcDbLine
 10
101.9400052758955
 20
105.7999963948861
 30
0.0
 11
133.1700052758955
 21
191.5999963948861
 31
0.0
  0
MTEXT
  5
3C2
330
8A
100
AcDbEntity
  8
0
 62
    21
100
AcDbMText
 10
150.7900052758954
 20
189.2999963948861
 30
0.0
 40
3.5
 41
0.0
 71
     1
 72
     1
  1
150
  7
Geneva
 73
     1
 44
1.0
1001
ACAD
1000
MTEXTBEGIN
1070
    73
1070
     1
1070
    44
1040
1.0
1070
    74
1070
     0
1000
MTEXTEND
  0
LINE
  5
3C3
330
8A
100
AcDbEntity
  8
0
 62
    21
370
    15
100
AcDbLine
 10
101.9400052758955
 20
105.7999963948861
 30
0.0
 11
147.5900052758955
 21
184.8699963948861
 31
0.0
  0
LINE
  5
3C4
330
8A
100
AcDbEntity
  8
0
 62
    21
370
    15
100
AcDbLine
 10
101.9400052758955
 20
105.7999963948861
 30
0.0
 11
160.6300052758955
 21
175.739996394886
 31
0.0
  0
LINE
  5
3C5
330
8A
100
AcDbEntity
  8
0
 62
    21
370
    15
100
AcDbLine
 10
101.9400052758955
 20
105.7999963948861
 30
0.0
 11
171.8800052758955
 21
164.489996394886
 31
0.0
  0
MTEXT
  5
3C6
330
8A
100
AcDbEntity
  8
0
 62
    21
100
AcDbMText
 10
186.5500052758955
 20
153.5399963948861
 30
0.0
 40
3.5
 41
0.0
 71
     1
 72
     1
  1
120
  7
Geneva
 73
     1
 44
1.0
1001
ACAD
1000
MTEXTBEGIN
1070
    73
1070
     1
1070
    44
1040
1.0
1070
    74
1070
     0
1000
MTEXTEND
  0
LINE
  5
3C7
330
8A
100
AcDbEntity
  8
0
 62
    21
370
    15
100
AcDbLine
 10
101.9400052758955
 20
105.7999963948861
 30
0.0
 11
181.0100052758954
 21
151.449996394886
 31
0.0
  0
LINE
  5
3C8
330
8A
100
AcDbEntity
  8
0
 62
    21
370
    15
100
AcDbLine
 10
101.9400052758955
 20
105.7999963948861
 30
0.0
 11
187.7400052758955
 21
137.0299963948861
 31
0.0
  0
LINE
  5
3C9
330
8A
100
AcDbEntity
  8
0
 62
    21
370
    15
100
AcDbLine
 10
101.9400052758955
 20
105.7999963948861
 30
0.0
 11
191.8600052758955
 21
121.6499963948861
 31
0.0
  0
MTEXT
  5
3CA
330
8A
100
AcDbEntity
  8
0
 62
    21
100
AcDbMText
 10
199.6400052758954
 20
102.949996394886
 30
0.0
 40
3.5
 41
0.0
 71
     1
 72
     1
  1
E
  7
Geneva
 73
     1
 44
1.0
1001
ACAD
1000
MTEXTBEGIN
1070
    73
1070
     1
1070
    44
1040
1.0
1070
    74
1070
     0
1000
MTEXTEND
  0
LINE
  5
3CB
330
8A
100
AcDbEntity
  8
0
 62
    21
370
    15
100
AcDbLine
 10
101.9400052758955
 20
105.7999963948861
 30
0.0
 11
193.2400052758955
 21
105.7999963948861
 31
0.0
  0
LINE
  5
3CC
330
8A
100
AcDbEntity
  8
0
 62
    21
370
    15
100
AcDbLine
 10
101.9400052758955
 20
105.7999963948861
 30
0.0
 11
191.8600052758955
 21
89.94999639488606
 31
0.0
  0
LINE
  5
3CD
330
8A
100
AcDbEntity
  8
0
 62
    21
370
    15
100
AcDbLine
 10
101.9400052758955
 20
105.7999963948861
 30
0.0
 11
187.7400052758955
 21
74.56999639488606
 31
0.0
  0
MTEXT
  5
3CE
330
8A
100
AcDbEntity
  8
0
 62
    21
100
AcDbMText
 10
186.5500052758955
 20
52.34999639488609
 30
0.0
 40
3.5
 41
0.0
 71
     1
 72
     1
  1
60
  7
Geneva
 73
     1
 44
1.0
1001
ACAD
1000
MTEXTBEGIN
1070
    73
1070
     1
1070
    44
1040
1.0
1070
    74
1070
     0
1000
MTEXTEND
  0
LINE
  5
3CF
330
8A
100
AcDbEntity
  8
0
 62
    21
370
    15
100
AcDbLine
 10
101.9400052758955
 20
105.7999963948861
 30
0.0
 11
181.0100052758954
 21
60.1499963948861
 31
0.0
  0
LINE
  5
3D0
330
8A
100
AcDbEntity
  8
0
 62
    21
370
    15
100
AcDbLine
 10
101.9400052758955
 20
105.7999963948861
 30
0.0
 11
171.8800052758955
 21
47.10999639488608
 31
0.0
  0
LINE
  5
3D1
330
8A
100
AcDbEntity
  8
0
 62
    21
370
    15
100
AcDbLine
 10
101.9400052758955
 20
105.7999963948861
 30
0.0
 11
160.6300052758955
 21
35.85999639488608
 31
0.0
  0
MTEXT
  5
3D2
330
8A
100
AcDbEntity
  8
0
 62
    21
100
AcDbMText
 10
150.7900052758954
 20
16.58999639488604
 30
0.0
 40
3.5
 41
0.0
 71
     1
 72
     1
  1
30
  7
Geneva
 73
     1
 44
1.0
1001
ACAD
1000
MTEXTBEGIN
1070
    73
1070
     1
1070
    44
1040
1.0
1070
    74
1070
     0
1000
MTEXTEND
  0
LINE
  5
3D3
330
8A
100
AcDbEntity
  8
0
 62
    21
370
    15
100
AcDbLine
 10
101.9400052758955
 20
105.7999963948861
 30
0.0
 11
147.5900052758955
 21
26.72999639488609
 31
0.0
  0
LINE
  5
3D4
330
8A
100
AcDbEntity
  8
0
 62
    21
370
    15
100
AcDbLine
 10
101.9400052758955
 20
105.7999963948861
 30
0.0
 11
133.1700052758955
 21
19.99999639488606
 31
0.0
  0
LINE
  5
3D5
330
8A
100
AcDbEntity
  8
0
 62
    21
370
    15
100
AcDbLine
 10
101.9400052758955
 20
105.7999963948861
 30
0.0
 11
117.7900052758955
 21
15.87999639488606
 31
0.0
  0
MTEXT
  5
3D6
330
8A
100
AcDbEntity
  8
0
 62
    21
100
AcDbMText
 10
100.3500052758954
 20
3.499996394886068
 30
0.0
 40
3.5
 41
0.0
 71
     1
 72
     1
  1
S
  7
Geneva
 73
     1
 44
1.0
1001
ACAD
1000
MTEXTBEGIN
1070
    73
1070
     1
1070
    44
1040
1.0
1070
    74
1070
     0
1000
MTEXTEND
  0
LINE
  5
3D7
330
8A
100
AcDbEntity
  8
0
 62
    21
370
    15
100
AcDbLine
 10
101.9400052758955
 20
105.7999963948861
 30
0.0
 11
101.9400052758955
 21
14.49999639488607
 31
0.0
  0
CIRCLE
  5
3D8
330
8A
100
AcDbEntity
  8
0
 62
    21
370
    15
100
AcDbCircle
 10
101.9400052758955
 20
105.7999963948861
 30
0.0
 40
91.3
  0
CIRCLE
  5
3D9
330
8A
100
AcDbEntity
  8
0
 62
    21
370
    15
100
AcDbCircle
 10
101.9400052758955
 20
105.7999963948861
 30
0.0
 40
81.15999999999997
  0
CIRCLE
  5
3DA
330
8A
100
AcDbEntity
  8
0
 62
    21
370
    15
100
AcDbCircle
 10
101.9400052758955
 20
105.7999963948861
 30
0.0
 40
71.00999999999998
  0
CIRCLE
  5
3DB
330
8A
100
AcDbEntity
  8
0
 62
    21
370
    15
100
AcDbCircle
 10
101.9400052758955
 20
105.7999963948861
 30
0.0
 40
60.86999999999998
  0
CIRCLE
  5
3DC
330
8A
100
AcDbEntity
  8
0
 62
    21
370
    15
100
AcDbCircle
 10
101.9400052758955
 20
105.7999963948861
 30
0.0
 40
50.72
  0
CIRCLE
  5
3DD
330
8A
100
AcDbEntity
  8
0
 62
    21
370
    15
100
AcDbCircle
 10
101.9400052758955
 20
105.7999963948861
 30
0.0
 40
40.57999999999998
  0
CIRCLE
  5
3DE
330
8A
100
AcDbEntity
  8
0
 62
    21
370
    15
100
AcDbCircle
 10
101.9400052758955
 20
105.7999963948861
 30
0.0
 40
30.43
  0
CIRCLE
  5
3DF
330
8A
100
AcDbEntity
  8
0
 62
    21
370
    15
100
AcDbCircle
 10
101.9400052758955
 20
105.7999963948861
 30
0.0
 40
20.29000000000001
  0
CIRCLE
  5
3E0
330
8A
100
AcDbEntity
  8
0
 62
    21
370
    15
100
AcDbCircle
 10
101.9400052758955
 20
105.7999963948861
 30
0.0
 40
10.14000000000001
  0
ENDBLK
  5
3E4
330
8A
100
AcDbEntity
  8
0
100
AcDbBlockEnd
  0
ENDSEC
  0
SECTION
  2
ENTITIES
  0
INSERT
  5
3E5
330
1F
100
AcDbEntity
  8
0
100
AcDbBlockReference
  2
A$C098A4A63
 10
476.6876673145651
 20
360.4916324443382
 30
0.0
  0
ENDSEC
  0
SECTION
  2
OBJECTS
  0
DICTIONARY
  5
C
330
0
100
AcDbDictionary
281
     1
  3
ACAD_COLOR
350
6B
  3
ACAD_GROUP
350
D
  3
ACAD_LAYOUT
350
1A
  3
ACAD_MATERIAL
350
6A
  3
ACAD_MLINESTYLE
350
17
  3
ACAD_PLOTSETTINGS
350
19
  3
ACAD_PLOTSTYLENAME
350
E
  3
ACDBHEADERROUNDTRIPXREC
350
757
  3
AcDbVariableDictionary
350
5E
  3
ASE_INDEX_DICTIONARY
350
73D
  0
DICTIONARY
  5
3E1
330
8A
100
AcDbDictionary
280
     1
281
     1
  3
ACAD_SORTENTS
360
3E2
  0
DICTIONARY
  5
6B
102
{ACAD_REACTORS
330
C
102
}
330
C
100
AcDbDictionary
281
     1
  0
DICTIONARY
  5
D
102
{ACAD_REACTORS
330
C
102
}
330
C
100
AcDbDictionary
281
     1
  0
DICTIONARY
  5
1A
102
{ACAD_REACTORS
330
C
102
}
330
C
100
AcDbDictionary
281
     1
  3
Layout1
350
51
  3
Layout2
350
56
  3
Model
350
22
  0
DICTIONARY
  5
6A
102
{ACAD_REACTORS
330
C
102
}
330
C
100
AcDbDictionary
281
     1
  0
DICTIONARY
  5
17
102
{ACAD_REACTORS
330
C
102
}
330
C
100
AcDbDictionary
281
     1
  3
Standard
350
18
  0
DICTIONARY
  5
19
102
{ACAD_REACTORS
330
C
102
}
330
C
100
AcDbDictionary
281
     1
  0
ACDBDICTIONARYWDFLT
  5
E
102
{ACAD_REACTORS
330
C
102
}
330
C
100
AcDbDictionary
281
     1
  3
Normal
350
F
100
AcDbDictionaryWithDefault
340
F
  0
DICTIONARY
  5
757
102
{ACAD_REACTORS
330
C
102
}
330
C
100
AcDbDictionary
281
     1
  0
DICTIONARY
  5
5E
102
{ACAD_REACTORS
330
C
102
}
330
C
100
AcDbDictionary
281
     1
  3
DIMASSOC
350
5F
  3
HIDETEXT
350
63
  3
PROJECTNAME
350
749
  0
DICTIONARY
  5
73D
102
{ACAD_REACTORS
330
C
102
}
330
C
100
AcDbDictionary
281
     1
  3
ASEBlockHierarchyIndexRecord
350
73F
1001
DCO15
1040
1549091406.468
  0
SORTENTSTABLE
  5
3E2
102
{ACAD_REACTORS
330
3E1
102
}
330
3E1
100
AcDbSortentsTable
330
8A
  0
LAYOUT
  5
51
102
{ACAD_XDICTIONARY
360
75A
102
}
102
{ACAD_REACTORS
330
1A
102
}
330
1A
100
AcDbPlotSettings
  1

  2
None
  4

  6

 40
0.0
 41
0.0
 42
0.0
 43
0.0
 44
0.0
 45
0.0
 46
0.0
 47
0.0
 48
0.0
 49
0.0
140
0.0
141
0.0
142
1.0
143
1.0
 70
   688
 72
     0
 73
     0
 74
     5
  7

 75
    16
147
1.0
148
0.0
149
0.0
100
AcDbLayout
  1
Layout1
 70
     1
 71
     1
 10
0.0
 20
0.0
 11
12.0
 21
9.0
 12
0.0
 22
0.0
 32
0.0
 14
0.0
 24
0.0
 34
0.0
 15
0.0
 25
0.0
 35
0.0
146
0.0
 13
0.0
 23
0.0
 33
0.0
 16
1.0
 26
0.0
 36
0.0
 17
0.0
 27
1.0
 37
0.0
 76
     0
330
50
  0
LAYOUT
  5
56
102
{ACAD_XDICTIONARY
360
75C
102
}
102
{ACAD_REACTORS
330
1A
102
}
330
1A
100
AcDbPlotSettings
  1

  2
None
  4

  6

 40
0.0
 41
0.0
 42
0.0
 43
0.0
 44
0.0
 45
0.0
 46
0.0
 47
0.0
 48
0.0
 49
0.0
140
0.0
141
0.0
142
1.0
143
1.0
 70
   688
 72
     0
 73
     0
 74
     5
  7

 75
    16
147
1.0
148
0.0
149
0.0
100
AcDbLayout
  1
Layout2
 70
     1
 71
     2
 10
0.0
 20
0.0
 11
12.0
 21
9.0
 12
0.0
 22
0.0
 32
0.0
 14
0.0
 24
0.0
 34
0.0
 15
0.0
 25
0.0
 35
0.0
146
0.0
 13
0.0
 23
0.0
 33
0.0
 16
1.0
 26
0.0
 36
0.0
 17
0.0
 27
1.0
 37
0.0
 76
     0
330
55
  0
LAYOUT
  5
22
102
{ACAD_XDICTIONARY
360
758
102
}
102
{ACAD_REACTORS
330
1A
102
}
330
1A
100
AcDbPlotSettings
  1

  2
none_device
  4
ANSI_A_(8.50_x_11.00_Inches)
  6

 40
6.349999904632567
 41
19.04999923706055
 42
6.350006103515625
 43
19.04998779296875
 44
215.8999938964844
 45
279.3999938964844
 46
0.0
 47
0.0
 48
0.0
 49
0.0
140
0.0
141
0.0
142
1.0
143
78.436453180766
 70
 11952
 72
     0
 73
     1
 74
     0
  7

 75
     0
147
0.0127491741332998
148
0.0
149
0.0
100
AcDbLayout
  1
Model
 70
     1
 71
     0
 10
0.0
 20
0.0
 11
12.0
 21
9.0
 12
0.0
 22
0.0
 32
0.0
 14
0.0
 24
0.0
 34
0.0
 15
0.0
 25
0.0
 35
0.0
146
0.0
 13
0.0
 23
0.0
 33
0.0
 16
1.0
 26
0.0
 36
0.0
 17
0.0
 27
1.0
 37
0.0
 76
     0
330
1F
  0
MLINESTYLE
  5
18
102
{ACAD_REACTORS
330
17
102
}
330
17
100
AcDbMlineStyle
  2
STANDARD
 70
     0
  3

 62
   256
 51
90.0
 52
90.0
 71
     2
 49
0.5
 62
   256
  6
BYLAYER
 49
-0.5
 62
   256
  6
BYLAYER
  0
ACDBPLACEHOLDER
  5
F
102
{ACAD_REACTORS
330
E
102
}
330
E
  0
DICTIONARYVAR
  5
5F
102
{ACAD_REACTORS
330
5E
102
}
330
5E
100
DictionaryVariables
280
     0
  1
2
  0
DICTIONARYVAR
  5
63
102
{ACAD_REACTORS
330
5E
102
}
330
5E
100
DictionaryVariables
280
     0
  1
1
  0
DICTIONARYVAR
  5
749
102
{ACAD_REACTORS
330
5E
102
}
330
5E
100
DictionaryVariables
280
     0
  1

  0
XRECORD
  5
73F
102
{ACAD_REACTORS
330
73D
102
}
330
73D
100
AcDbXrecord
280
     1
330
3E5
  0
DICTIONARY
  5
75A
330
51
100
AcDbDictionary
280
     1
281
     1
  3
ACAD_XREC_ROUNDTRIP
360
75B
  0
DICTIONARY
  5
75C
330
56
100
AcDbDictionary
280
     1
281
     1
  3
ACAD_XREC_ROUNDTRIP
360
75D
  0
DICTIONARY
  5
758
330
22
100
AcDbDictionary
280
     1
281
     1
  3
ACAD_XREC_ROUNDTRIP
360
759
  0
XRECORD
  5
75B
102
{ACAD_REACTORS
330
75A
102
}
330
75A
100
AcDbXrecord
280
     1
102
SHADEPLOT
 70
     0
102
SHADEPLOTRESLEVEL
 70
     2
102
SHADEPLOTCUSTOMDPI
 70
   300
  0
XRECORD
  5
75D
102
{ACAD_REACTORS
330
75C
102
}
330
75C
100
AcDbXrecord
280
     1
102
SHADEPLOT
 70
     0
102
SHADEPLOTRESLEVEL
 70
     2
102
SHADEPLOTCUSTOMDPI
 70
   300
  0
XRECORD
  5
759
102
{ACAD_REACTORS
330
758
102
}
330
758
100
AcDbXrecord
280
     1
102
SHADEPLOT
 70
     0
102
SHADEPLOTRESLEVEL
 70
     2
102
SHADEPLOTCUSTOMDPI
 70
   300
  0
ENDSEC
  0
EOF
