  0
SECTION
  2
HEADER
  9
$ACADVER
  1
AC1018
  9
$ACADMAINTVER
 70
     2
  9
$DWGCODEPAGE
  3
ANSI_1252
  9
$INSBASE
 10
0.0
 20
0.0
 30
0.0
  9
$EXTMIN
 10
-9525.474270070809
 20
-5462.629523545053
 30
0.0
  9
$EXTMAX
 10
722.4114743086174
 20
4503.166051976333
 30
0.0
  9
$LIMMIN
 10
-7290.701733099384
 20
-10594.18773646332
  9
$LIMMAX
 10
16381.37362356303
 20
5174.642902172433
  9
$ORTHOMODE
 70
     0
  9
$REGENMODE
 70
     1
  9
$FILLMODE
 70
     1
  9
$QTEXTMODE
 70
     0
  9
$MIRRTEXT
 70
     1
  9
$LTSCALE
 40
50.0
  9
$ATTMODE
 70
     1
  9
$TEXTSIZE
 40
20.0
  9
$TRACEWID
 40
0.05
  9
$TEXTSTYLE
  7
SYMATH
  9
$CLAYER
  8
SCALE
  9
$CELTYPE
  6
BYLAYER
  9
$CECOLOR
 62
   256
  9
$CELTSCALE
 40
1.0
  9
$DISPSILH
 70
     0
  9
$DIMSCALE
 40
1.0
  9
$DIMASZ
 40
20.0
  9
$DIMEXO
 40
0.0625
  9
$DIMDLI
 40
0.38
  9
$DIMRND
 40
0.0
  9
$DIMDLE
 40
0.0
  9
$DIMEXE
 40
0.18
  9
$DIMTP
 40
0.0
  9
$DIMTM
 40
0.0
  9
$DIMTXT
 40
15.0
  9
$DIMCEN
 40
0.09
  9
$DIMTSZ
 40
0.0
  9
$DIMTOL
 70
     0
  9
$DIMLIM
 70
     0
  9
$DIMTIH
 70
     0
  9
$DIMTOH
 70
     1
  9
$DIMSE1
 70
     0
  9
$DIMSE2
 70
     0
  9
$DIMTAD
 70
     1
  9
$DIMZIN
 70
     0
  9
$DIMBLK
  1

  9
$DIMASO
 70
     1
  9
$DIMSHO
 70
     1
  9
$DIMPOST
  1

  9
$DIMAPOST
  1

  9
$DIMALT
 70
     0
  9
$DIMALTD
 70
     2
  9
$DIMALTF
 40
25.4
  9
$DIMLFAC
 40
1.0
  9
$DIMTOFL
 70
     0
  9
$DIMTVP
 40
0.0
  9
$DIMTIX
 70
     1
  9
$DIMSOXD
 70
     0
  9
$DIMSAH
 70
     0
  9
$DIMBLK1
  1

  9
$DIMBLK2
  1

  9
$DIMSTYLE
  2
STANDARD
  9
$DIMCLRD
 70
     0
  9
$DIMCLRE
 70
     0
  9
$DIMCLRT
 70
     2
  9
$DIMTFAC
 40
0.012
  9
$DIMGAP
 40
0.09
  9
$DIMJUST
 70
     0
  9
$DIMSD1
 70
     0
  9
$DIMSD2
 70
     0
  9
$DIMTOLJ
 70
     1
  9
$DIMTZIN
 70
     0
  9
$DIMALTZ
 70
     0
  9
$DIMALTTZ
 70
     0
  9
$DIMUPT
 70
     0
  9
$DIMDEC
 70
     4
  9
$DIMTDEC
 70
     4
  9
$DIMALTU
 70
     2
  9
$DIMALTTD
 70
     2
  9
$DIMTXSTY
  7
SYMATH
  9
$DIMAUNIT
 70
     0
  9
$DIMADEC
 70
     0
  9
$DIMALTRND
 40
0.0
  9
$DIMAZIN
 70
     0
  9
$DIMDSEP
 70
    46
  9
$DIMATFIT
 70
     3
  9
$DIMFRAC
 70
     0
  9
$DIMLDRBLK
  1

  9
$DIMLUNIT
 70
     2
  9
$DIMLWD
 70
    -2
  9
$DIMLWE
 70
    -2
  9
$DIMTMOVE
 70
     2
  9
$LUNITS
 70
     2
  9
$LUPREC
 70
     4
  9
$SKETCHINC
 40
0.1
  9
$FILLETRAD
 40
0.0
  9
$AUNITS
 70
     0
  9
$AUPREC
 70
     0
  9
$MENU
  1
acad
  9
$ELEVATION
 40
0.0
  9
$PELEVATION
 40
0.0
  9
$THICKNESS
 40
0.0
  9
$LIMCHECK
 70
     0
  9
$CHAMFERA
 40
0.0
  9
$CHAMFERB
 40
0.0
  9
$CHAMFERC
 40
0.0
  9
$CHAMFERD
 40
0.0
  9
$SKPOLY
 70
     0
  9
$TDCREATE
 40
2450298.554883912
  9
$TDUCREATE
 40
2450298.513217245
  9
$TDUPDATE
 40
2453801.564831806
  9
$TDUUPDATE
 40
2453801.523165139
  9
$TDINDWG
 40
1.8106848148
  9
$TDUSRTIMER
 40
1.8106848148
  9
$USRTIMER
 70
     1
  9
$ANGBASE
 50
0.0
  9
$ANGDIR
 70
     0
  9
$PDMODE
 70
     0
  9
$PDSIZE
 40
0.0
  9
$PLINEWID
 40
0.0
  9
$SPLFRAME
 70
     0
  9
$SPLINETYPE
 70
     6
  9
$SPLINESEGS
 70
     8
  9
$HANDSEED
  5
5D23
  9
$SURFTAB1
 70
     6
  9
$SURFTAB2
 70
     6
  9
$SURFTYPE
 70
     6
  9
$SURFU
 70
     6
  9
$SURFV
 70
     6
  9
$UCSBASE
  2

  9
$UCSNAME
  2

  9
$UCSORG
 10
0.0
 20
0.0
 30
0.0
  9
$UCSXDIR
 10
1.0
 20
0.0
 30
0.0
  9
$UCSYDIR
 10
0.0
 20
1.0
 30
0.0
  9
$UCSORTHOREF
  2

  9
$UCSORTHOVIEW
 70
     0
  9
$UCSORGTOP
 10
0.0
 20
0.0
 30
0.0
  9
$UCSORGBOTTOM
 10
0.0
 20
0.0
 30
0.0
  9
$UCSORGLEFT
 10
0.0
 20
0.0
 30
0.0
  9
$UCSORGRIGHT
 10
0.0
 20
0.0
 30
0.0
  9
$UCSORGFRONT
 10
0.0
 20
0.0
 30
0.0
  9
$UCSORGBACK
 10
0.0
 20
0.0
 30
0.0
  9
$PUCSBASE
  2

  9
$PUCSNAME
  2

  9
$PUCSORG
 10
0.0
 20
0.0
 30
0.0
  9
$PUCSXDIR
 10
1.0
 20
0.0
 30
0.0
  9
$PUCSYDIR
 10
0.0
 20
1.0
 30
0.0
  9
$PUCSORTHOREF
  2

  9
$PUCSORTHOVIEW
 70
     0
  9
$PUCSORGTOP
 10
0.0
 20
0.0
 30
0.0
  9
$PUCSORGBOTTOM
 10
0.0
 20
0.0
 30
0.0
  9
$PUCSORGLEFT
 10
0.0
 20
0.0
 30
0.0
  9
$PUCSORGRIGHT
 10
0.0
 20
0.0
 30
0.0
  9
$PUCSORGFRONT
 10
0.0
 20
0.0
 30
0.0
  9
$PUCSORGBACK
 10
0.0
 20
0.0
 30
0.0
  9
$USERI1
 70
     0
  9
$USERI2
 70
     0
  9
$USERI3
 70
     0
  9
$USERI4
 70
     0
  9
$USERI5
 70
     0
  9
$USERR1
 40
0.0
  9
$USERR2
 40
0.0
  9
$USERR3
 40
0.0
  9
$USERR4
 40
0.0
  9
$USERR5
 40
0.0
  9
$WORLDVIEW
 70
     1
  9
$SHADEDGE
 70
     3
  9
$SHADEDIF
 70
    70
  9
$TILEMODE
 70
     1
  9
$MAXACTVP
 70
    16
  9
$PINSBASE
 10
0.0
 20
0.0
 30
0.0
  9
$PLIMCHECK
 70
     0
  9
$PEXTMIN
 10
1.000000000000000E+20
 20
1.000000000000000E+20
 30
1.000000000000000E+20
  9
$PEXTMAX
 10
-1.000000000000000E+20
 20
-1.000000000000000E+20
 30
-1.000000000000000E+20
  9
$PLIMMIN
 10
0.0
 20
0.0
  9
$PLIMMAX
 10
12.0
 20
9.0
  9
$UNITMODE
 70
     0
  9
$VISRETAIN
 70
     0
  9
$PLINEGEN
 70
     0
  9
$PSLTSCALE
 70
     1
  9
$TREEDEPTH
 70
  3020
  9
$CMLSTYLE
  2
STANDARD
  9
$CMLJUST
 70
     0
  9
$CMLSCALE
 40
1.0
  9
$PROXYGRAPHICS
 70
     1
  9
$MEASUREMENT
 70
     0
  9
$CELWEIGHT
370
    -1
  9
$ENDCAPS
280
     0
  9
$JOINSTYLE
280
     0
  9
$LWDISPLAY
290
     0
  9
$INSUNITS
 70
     0
  9
$HYPERLINKBASE
  1

  9
$STYLESHEET
  1
monochrome.ctb
  9
$XEDIT
290
     1
  9
$CEPSNTYPE
380
     0
  9
$PSTYLEMODE
290
     1
  9
$FINGERPRINTGUID
  2
{892C8D59-5A8E-4072-A467-B29F6FA4553E}
  9
$VERSIONGUID
  2
{F8EEF8A1-1C9A-4502-98E0-3552263F3A5B}
  9
$EXTNAMES
290
     1
  9
$PSVPSCALE
 40
0.0
  9
$OLESTARTUP
290
     0
  9
$SORTENTS
280
   127
  9
$INDEXCTL
280
     0
  9
$HIDETEXT
280
     0
  9
$XCLIPFRAME
290
     0
  9
$HALOGAP
280
     0
  9
$OBSCOLOR
 70
   257
  9
$OBSLTYPE
280
     0
  9
$INTERSECTIONDISPLAY
280
     0
  9
$INTERSECTIONCOLOR
 70
   257
  9
$DIMASSOC
280
     1
  9
$PROJECTNAME
  1

  0
ENDSEC
  0
SECTION
  2
CLASSES
  0
CLASS
  1
DICTIONARYVAR
  2
AcDbDictionaryVar
  3
ObjectDBX Classes
 90
        0
 91
        1
280
     0
281
     0
  0
CLASS
  1
IDBUFFER
  2
AcDbIdBuffer
  3
ObjectDBX Classes
 90
        0
 91
        0
280
     0
281
     0
  0
CLASS
  1
ACDBDICTIONARYWDFLT
  2
AcDbDictionaryWithDefault
  3
ObjectDBX Classes
 90
        0
 91
        1
280
     0
281
     0
  0
CLASS
  1
SORTENTSTABLE
  2
AcDbSortentsTable
  3
ObjectDBX Classes
 90
        0
 91
        0
280
     0
281
     0
  0
ENDSEC
  0
SECTION
  2
TABLES
  0
TABLE
  2
VPORT
  5
8
330
0
100
AcDbSymbolTable
 70
     2
  0
VPORT
  5
5D22
330
8
100
AcDbSymbolTableRecord
100
AcDbViewportTableRecord
  2
*Active
 70
     0
 10
0.0
 20
0.0
 11
1.0
 21
1.0
 12
-2096.464131625642
 22
11.29321794936913
 13
0.0
 23
0.0
 14
5.0
 24
5.0
 15
5.0
 25
5.0
 16
0.0
 26
0.0
 36
1.0
 17
0.0
 27
0.0
 37
0.0
 40
11513.5190724331
 41
1.757855822550831
 42
50.0
 43
0.0
 44
0.0
 50
0.0
 51
0.0
 71
     0
 72
   100
 73
     1
 74
     0
 75
     0
 76
     0
 77
     0
 78
     1
281
     0
 65
     1
110
0.0
120
0.0
130
0.0
111
1.0
121
0.0
131
0.0
112
0.0
122
1.0
132
0.0
 79
     0
146
0.0
  0
ENDTAB
  0
TABLE
  2
LTYPE
  5
5
330
0
100
AcDbSymbolTable
 70
     1
  0
LTYPE
  5
11
330
5
100
AcDbSymbolTableRecord
100
AcDbLinetypeTableRecord
  2
BYBLOCK
 70
     0
  3

 72
    65
 73
     0
 40
0.0
  0
LTYPE
  5
12
330
5
100
AcDbSymbolTableRecord
100
AcDbLinetypeTableRecord
  2
BYLAYER
 70
     0
  3

 72
    65
 73
     0
 40
0.0
  0
LTYPE
  5
13
330
5
100
AcDbSymbolTableRecord
100
AcDbLinetypeTableRecord
  2
CONTINUOUS
 70
     0
  3
Solid line
 72
    65
 73
     0
 40
0.0
  0
ENDTAB
  0
TABLE
  2
LAYER
  5
2
330
0
100
AcDbSymbolTable
 70
    14
  0
LAYER
  5
E
330
2
100
AcDbSymbolTableRecord
100
AcDbLayerTableRecord
  2
0
 70
     0
 62
     7
  6
CONTINUOUS
370
    15
390
8ED
  0
LAYER
  5
3B
330
2
100
AcDbSymbolTableRecord
100
AcDbLayerTableRecord
  2
SCALE
 70
     0
 62
     1
  6
CONTINUOUS
370
    15
390
8ED
  0
LAYER
  5
3F
330
2
100
AcDbSymbolTableRecord
100
AcDbLayerTableRecord
  2
VVF
 70
     0
 62
     7
  6
CONTINUOUS
370
    15
390
8ED
  0
LAYER
  5
44
330
2
100
AcDbSymbolTableRecord
100
AcDbLayerTableRecord
  2
DEFPOINTS
 70
     0
 62
     7
  6
CONTINUOUS
290
     0
370
    15
390
8ED
  0
LAYER
  5
47
330
2
100
AcDbSymbolTableRecord
100
AcDbLayerTableRecord
  2
TT
 70
     0
 62
     7
  6
CONTINUOUS
370
    15
390
8ED
  0
LAYER
  5
4B
330
2
100
AcDbSymbolTableRecord
100
AcDbLayerTableRecord
  2
DEMOLIZIONI
 70
     0
 62
    40
  6
CONTINUOUS
370
    15
390
8ED
  0
LAYER
  5
4C
330
2
100
AcDbSymbolTableRecord
100
AcDbLayerTableRecord
  2
LEGENDA
 70
     0
 62
     1
  6
CONTINUOUS
370
    15
390
8ED
  0
LAYER
  5
4D
330
2
100
AcDbSymbolTableRecord
100
AcDbLayerTableRecord
  2
COSTRUZIONI
 70
     0
 62
   222
  6
CONTINUOUS
370
    15
390
8ED
  0
LAYER
  5
50
330
2
100
AcDbSymbolTableRecord
100
AcDbLayerTableRecord
  2
SCRITTE-VARIE
 70
     0
 62
     3
  6
CONTINUOUS
370
    15
390
8ED
  0
LAYER
  5
7B6
330
2
100
AcDbSymbolTableRecord
100
AcDbLayerTableRecord
  2
SANITARI
 70
     0
 62
     8
  6
CONTINUOUS
370
    15
390
8ED
  0
LAYER
  5
58A6
330
2
100
AcDbSymbolTableRecord
100
AcDbLayerTableRecord
  2
IMPIANTO-ELETTRICO
 70
     0
 62
     2
  6
CONTINUOUS
370
    -3
390
8ED
  0
LAYER
  5
58A7
330
2
100
AcDbSymbolTableRecord
100
AcDbLayerTableRecord
  2
INTESTAZIONE
 70
     0
 62
     9
  6
CONTINUOUS
370
    -3
390
8ED
  0
LAYER
  5
58A9
330
2
100
AcDbSymbolTableRecord
100
AcDbLayerTableRecord
  2
2DMURI
 70
     0
 62
     9
  6
CONTINUOUS
370
    -3
390
8ED
  0
LAYER
  5
5D1F
330
2
100
AcDbSymbolTableRecord
100
AcDbLayerTableRecord
  2
cartiglioa4|TORO
 70
    48
 62
     2
  6
Continuous
370
    -3
390
8ED
  0
ENDTAB
  0
TABLE
  2
STYLE
  5
3
330
0
100
AcDbSymbolTable
 70
     9
  0
STYLE
  5
F
330
3
100
AcDbSymbolTableRecord
100
AcDbTextStyleTableRecord
  2
STANDARD
 70
     0
 40
0.0
 41
1.0
 50
0.0
 71
     0
 42
0.2
  3
txt
  4

  0
STYLE
  5
2F
330
3
100
AcDbSymbolTableRecord
100
AcDbTextStyleTableRecord
  2
ROMAND
 70
     0
 40
20.0
 41
1.0
 50
0.0
 71
     0
 42
1.0
  3
ROMANS.SHX
  4

  0
STYLE
  5
30
330
3
100
AcDbSymbolTableRecord
100
AcDbTextStyleTableRecord
  2
ROMANS
 70
     0
 40
0.0
 41
1.0
 50
0.0
 71
     0
 42
40.0
  3
ROMANS.shx
  4

  0
STYLE
  5
31
330
3
100
AcDbSymbolTableRecord
100
AcDbTextStyleTableRecord
  2
ROMANC
 70
     0
 40
0.0
 41
1.0
 50
0.0
 71
     0
 42
30.0
  3
ROMANC.shx
  4

  0
STYLE
  5
34
330
3
100
AcDbSymbolTableRecord
100
AcDbTextStyleTableRecord
  2
ROMANT
 70
     0
 40
0.0
 41
1.0
 50
0.0
 71
     0
 42
20.0
  3
ROMANT.SHX
  4

  0
STYLE
  5
35
330
3
100
AcDbSymbolTableRecord
100
AcDbTextStyleTableRecord
  2
SYMATH
 70
     0
 40
0.0
 41
1.0
 50
0.0
 71
     0
 42
20.0
  3
symath
  4

  0
ENDTAB
  0
TABLE
  2
VIEW
  5
6
330
0
100
AcDbSymbolTable
 70
     0
  0
ENDTAB
  0
TABLE
  2
UCS
  5
7
330
0
100
AcDbSymbolTable
 70
     0
  0
ENDTAB
  0
TABLE
  2
APPID
  5
9
330
0
100
AcDbSymbolTable
 70
     2
  0
APPID
  5
10
330
9
100
AcDbSymbolTableRecord
100
AcDbRegAppTableRecord
  2
ACAD
 70
     0
  0
APPID
  5
5906
330
9
100
AcDbSymbolTableRecord
100
AcDbRegAppTableRecord
  2
DCO15
 70
     0
  0
ENDTAB
  0
TABLE
  2
DIMSTYLE
  5
A
330
0
100
AcDbSymbolTable
 70
     2
100
AcDbDimStyleTable
 71
     1
340
76C
  0
DIMSTYLE
105
76C
330
A
100
AcDbSymbolTableRecord
100
AcDbDimStyleTableRecord
  2
STANDARD
 70
     0
340
F
  0
ENDTAB
  0
TABLE
  2
BLOCK_RECORD
  5
1
330
0
100
AcDbSymbolTable
 70
     5
  0
BLOCK_RECORD
  5
17
330
1
100
AcDbSymbolTableRecord
100
AcDbBlockTableRecord
  2
*MODEL_SPACE
340
8F2
  0
BLOCK_RECORD
  5
14
330
1
100
AcDbSymbolTableRecord
100
AcDbBlockTableRecord
  2
*PAPER_SPACE
340
8F3
  0
BLOCK_RECORD
  5
20
330
1
100
AcDbSymbolTableRecord
100
AcDbBlockTableRecord
  2
PT
340
0
  0
BLOCK_RECORD
  5
7BB
330
1
100
AcDbSymbolTableRecord
100
AcDbBlockTableRecord
  2
LAVABOX
340
0
  0
BLOCK_RECORD
  5
907
330
1
100
AcDbSymbolTableRecord
100
AcDbBlockTableRecord
  2
cartiglioa4
340
0
102
{BLKREFS
331
90C
331
4E53
331
4E92
331
4F2A
331
5C98
331
5CAA
331
5CB3
331
5CD1
331
5CD0
331
5CCB
102
}
  0
BLOCK_RECORD
  5
5882
330
1
100
AcDbSymbolTableRecord
100
AcDbBlockTableRecord
  2
A$C17763048
340
0
  0
ENDTAB
  0
ENDSEC
  0
SECTION
  2
BLOCKS
  0
BLOCK
  5
54
330
17
100
AcDbEntity
  8
0
100
AcDbBlockBegin
  2
*MODEL_SPACE
 70
     0
 10
0.0
 20
0.0
 30
0.0
  3
*MODEL_SPACE
  1

  0
ENDBLK
  5
55
330
17
100
AcDbEntity
  8
0
100
AcDbBlockEnd
  0
BLOCK
  5
52
330
14
100
AcDbEntity
 67
     1
  8
0
100
AcDbBlockBegin
  2
*PAPER_SPACE
 70
     0
 10
0.0
 20
0.0
 30
0.0
  3
*PAPER_SPACE
  1

  0
ENDBLK
  5
53
330
14
100
AcDbEntity
 67
     1
  8
0
100
AcDbBlockEnd
  0
BLOCK
  5
79
330
20
100
AcDbEntity
  8
0
100
AcDbBlockBegin
  2
PT
 70
     0
 10
0.0
 20
0.0
 30
0.0
  3
PT
  1

  0
LWPOLYLINE
  5
7A
330
20
100
AcDbEntity
  8
VVF
100
AcDbPolyline
 90
        2
 70
     0
 43
5.0
 10
24.33925410486518
 20
-12.93728686325045
 10
93.1605932979321
 20
-12.93728686325045
  0
LWPOLYLINE
  5
7E
330
20
100
AcDbEntity
  8
VVF
100
AcDbPolyline
 90
        2
 70
     0
 43
5.0
 10
-31.557101873894
 20
0.0
 10
37.26423731917293
 20
0.0
  0
LWPOLYLINE
  5
82
330
20
100
AcDbEntity
  8
VVF
100
AcDbPolyline
 90
        2
 70
     0
 43
5.0
 10
-88.9641701764035
 20
-12.93728686325045
 10
-20.14283098333658
 20
-12.93728686325045
  0
ENDBLK
  5
86
330
20
100
AcDbEntity
  8
0
100
AcDbBlockEnd
  0
BLOCK
  5
7DD
330
7BB
100
AcDbEntity
  8
0
100
AcDbBlockBegin
  2
LAVABOX
 70
     0
 10
0.0
 20
0.0
 30
0.0
  3
LAVABOX
  1

  0
ARC
  5
7BC
330
7BB
100
AcDbEntity
  8
SANITARI
100
AcDbCircle
 10
142.9975402507116
 20
-253.1944059938251
 30
0.0
 40
182.0024597492928
100
AcDbArc
 50
328.8925025105992
 51
359.9999999999817
  0
ARC
  5
7BD
330
7BB
100
AcDbEntity
  8
SANITARI
100
AcDbCircle
 10
74.4199893695768
 20
-211.8135422198684
 30
0.0
 40
262.0977553136002
100
AcDbArc
 50
304.4675173095494
 51
328.8925025106415
  0
ARC
  5
7BE
330
7BB
100
AcDbEntity
  8
SANITARI
100
AcDbCircle
 10
29.44495730707422
 20
-146.2949212728417
 30
0.0
 40
341.56751811571
100
AcDbArc
 50
285.8723315940684
 51
304.4675173095226
  0
ARC
  5
7BF
330
7BB
100
AcDbEntity
  8
SANITARI
100
AcDbCircle
 10
0.0000000000582077
 20
-42.73782118357485
 30
0.0
 40
449.2293892201559
100
AcDbArc
 50
269.9999999999926
 51
285.8723315940641
  0
ARC
  5
7C0
330
7BB
100
AcDbEntity
  8
SANITARI
100
AcDbCircle
 10
0.0
 20
-42.73782118348754
 30
0.0
 40
449.2293892202487
100
AcDbArc
 50
254.1276684059624
 51
270.0
  0
ARC
  5
7C1
330
7BB
100
AcDbEntity
  8
SANITARI
100
AcDbCircle
 10
-29.44495730695781
 20
-146.2949212729436
 30
0.0
 40
341.567518115642
100
AcDbArc
 50
235.532482690446
 51
254.1276684059484
  0
ARC
  5
7C2
330
7BB
100
AcDbEntity
  8
SANITARI
100
AcDbCircle
 10
-74.41998936951859
 20
-211.8135422195191
 30
0.0
 40
262.0977553138788
100
AcDbArc
 50
211.1074974894849
 51
235.5324826904762
  0
ARC
  5
7C3
330
7BB
100
AcDbEntity
  8
SANITARI
100
AcDbCircle
 10
-142.9975402506534
 20
-253.1944059939124
 30
0.0
 40
182.0024597493466
100
AcDbArc
 50
179.9999999999908
 51
211.1074974894652
  0
ARC
  5
7C4
330
7BB
100
AcDbEntity
  8
SANITARI
100
AcDbCircle
 10
142.9975402507116
 20
-253.1944059938251
 30
0.0
 40
132.0024597492919
100
AcDbArc
 50
328.8925025105602
 51
359.9999999999748
  0
ARC
  5
7C5
330
7BB
100
AcDbEntity
  8
SANITARI
100
AcDbCircle
 10
74.4199893695768
 20
-211.8135422198829
 30
0.0
 40
212.0977553135784
100
AcDbArc
 50
304.467517309573
 51
328.8925025106306
  0
ARC
  5
7C6
330
7BB
100
AcDbEntity
  8
SANITARI
100
AcDbCircle
 10
29.44495730707422
 20
-146.2949212729145
 30
0.0
 40
291.5675181156313
100
AcDbArc
 50
285.8723315940753
 51
304.4675173095417
  0
ARC
  5
7C7
330
7BB
100
AcDbEntity
  8
SANITARI
100
AcDbCircle
 10
0.0
 20
-42.73782118345843
 30
0.0
 40
399.2293892202724
100
AcDbArc
 50
270.0
 51
285.8723315940692
  0
ARC
  5
7C8
330
7BB
100
AcDbEntity
  8
SANITARI
100
AcDbCircle
 10
0.0
 20
-42.73782118345843
 30
0.0
 40
399.2293892202718
100
AcDbArc
 50
254.1276684059481
 51
270.0
  0
ARC
  5
7C9
330
7BB
100
AcDbEntity
  8
SANITARI
100
AcDbCircle
 10
-29.44495730707422
 20
-146.2949212727544
 30
0.0
 40
291.5675181157703
100
AcDbArc
 50
235.532482690476
 51
254.1276684059569
  0
ARC
  5
7CA
330
7BB
100
AcDbEntity
  8
SANITARI
100
AcDbCircle
 10
-74.41998936951859
 20
-211.8135422197374
 30
0.0
 40
212.0977553137296
100
AcDbArc
 50
211.1074974894017
 51
235.5324826904363
  0
ARC
  5
7CB
330
7BB
100
AcDbEntity
  8
SANITARI
100
AcDbCircle
 10
-142.9975402505952
 20
-253.1944059938251
 30
0.0
 40
132.0024597494048
100
AcDbArc
 50
180.0000000000252
 51
211.1074974894245
  0
CIRCLE
  5
7CC
330
7BB
100
AcDbEntity
  8
SANITARI
100
AcDbCircle
 10
0.0
 20
-145.6804629850376
 30
0.0
 40
22.96555069349415
  0
LINE
  5
7CD
330
7BB
100
AcDbEntity
  8
SANITARI
100
AcDbLine
 10
60.62911331356736
 20
-145.6804629850376
 30
0.0
 11
-63.87698333809385
 21
-145.6804629850085
 31
0.0
  0
LINE
  5
7CE
330
7BB
100
AcDbEntity
  8
SANITARI
100
AcDbLine
 10
0.0
 20
-84.13801169316867
 30
0.0
 11
0.0
 21
-210.0499612414278
 31
0.0
  0
CIRCLE
  5
7CF
330
7BB
100
AcDbEntity
  8
SANITARI
100
AcDbCircle
 10
-153.5659085890511
 20
-56.83393858492491
 30
0.0
 40
34.33233841048059
  0
LINE
  5
7D0
330
7BB
100
AcDbEntity
  8
SANITARI
100
AcDbLine
 10
-83.11544318287634
 20
-56.83393858492491
 30
0.0
 11
-223.0527855257387
 21
-56.83393858492491
 31
0.0
  0
LINE
  5
7D1
330
7BB
100
AcDbEntity
  8
SANITARI
100
AcDbLine
 10
-153.5659085891093
 20
0.0
 30
0.0
 11
-153.5659085890511
 21
-128.7039081474941
 31
0.0
  0
ARC
  5
7D2
330
7BB
100
AcDbEntity
  8
SANITARI
100
AcDbCircle
 10
-225.0
 20
-150.0
 30
0.0
 40
50.0
100
AcDbArc
 50
89.99999999999923
 51
180.0
  0
ARC
  5
7D3
330
7BB
100
AcDbEntity
  8
SANITARI
100
AcDbCircle
 10
225.0
 20
-150.0
 30
0.0
 40
50.0
100
AcDbArc
 50
0.0000000000000254
 51
89.99999999999994
  0
LINE
  5
7D4
330
7BB
100
AcDbEntity
  8
SANITARI
100
AcDbLine
 10
225.0
 20
-100.0
 30
0.0
 11
-225.0
 21
-100.0
 31
0.0
  0
LINE
  5
7D5
330
7BB
100
AcDbEntity
  8
SANITARI
100
AcDbLine
 10
275.0
 20
-253.1944059938833
 30
0.0
 11
275.0
 21
-150.0
 31
0.0
  0
LINE
  5
7D6
330
7BB
100
AcDbEntity
  8
SANITARI
100
AcDbLine
 10
-275.0
 20
-150.0
 30
0.0
 11
-275.0
 21
-253.1944059938833
 31
0.0
  0
LINE
  5
7D7
330
7BB
100
AcDbEntity
  8
SANITARI
100
AcDbLine
 10
325.0
 20
0.0
 30
0.0
 11
-325.0
 21
0.0
 31
0.0
  0
LINE
  5
7D8
330
7BB
100
AcDbEntity
  8
SANITARI
100
AcDbLine
 10
325.0
 20
-253.1944059938251
 30
0.0
 11
325.0
 21
0.0
 31
0.0
  0
LINE
  5
7D9
330
7BB
100
AcDbEntity
  8
SANITARI
100
AcDbLine
 10
-325.0
 20
0.0
 30
0.0
 11
-325.0
 21
-253.1944059939124
 31
0.0
  0
LINE
  5
7DA
330
7BB
100
AcDbEntity
  8
SANITARI
100
AcDbLine
 10
133.4731728858314
 20
0.0
 30
0.0
 11
133.4731728858314
 21
-122.9631265180069
 31
0.0
  0
LINE
  5
7DB
330
7BB
100
AcDbEntity
  8
SANITARI
100
AcDbLine
 10
203.9236382921226
 20
-56.83393858492491
 30
0.0
 11
63.98629594920203
 21
-56.83393858492491
 31
0.0
  0
CIRCLE
  5
7DC
330
7BB
100
AcDbEntity
  8
SANITARI
100
AcDbCircle
 10
133.4731728858314
 20
-56.83393858492491
 30
0.0
 40
34.33233841048059
  0
ENDBLK
  5
7DE
330
7BB
100
AcDbEntity
  8
0
100
AcDbBlockEnd
  0
BLOCK
  5
908
330
907
100
AcDbEntity
  8
0
100
AcDbBlockBegin
  2
cartiglioa4
 70
    36
 10
3511.66404377648
 20
3468.383972535801
 30
0.0
  3
cartiglioa4
  1
C:\Documents and Settings\u215625\Desktop\MILLIO 42\cartiglioa4.dwg
  0
ENDBLK
  5
909
330
907
100
AcDbEntity
  8
0
100
AcDbBlockEnd
  0
BLOCK
  5
5883
330
5882
100
AcDbEntity
  8
0
100
AcDbBlockBegin
  2
A$C17763048
 70
     0
 10
0.0
 20
0.0
 30
0.0
  3
A$C17763048
  1

  0
SOLID
  5
5884
330
5882
100
AcDbEntity
  8
2DMURI
100
AcDbTrace
 10
5.60957918836101
 20
5.467515743061085
 30
0.0
 11
5.101995967588948
 21
4.959932522289477
 31
0.0
 12
8.664765539846428
 22
4.95993252228925
 32
0.0
 13
8.664765539846428
 23
4.95993252228925
 33
0.0
  0
LINE
  5
5885
330
5882
100
AcDbEntity
  8
2DMURI
100
AcDbLine
 10
8.664765539846428
 20
4.95993252228925
 30
0.0
 11
5.609579188360783
 21
4.452349301517642
 31
0.0
  0
LINE
  5
5886
330
5882
100
AcDbEntity
  8
2DMURI
100
AcDbLine
 10
8.664765539846428
 20
4.95993252228925
 30
0.0
 11
5.609579188360783
 21
5.467515743061085
 31
0.0
  0
LINE
  5
5887
330
5882
100
AcDbEntity
  8
2DMURI
100
AcDbLine
 10
8.664765539846428
 20
4.95993252228925
 30
0.0
 11
1.539226395331695
 21
4.95993252228925
 31
0.0
  0
CIRCLE
  5
5888
330
5882
100
AcDbEntity
  8
2DMURI
100
AcDbCircle
 10
5.101995967588948
 20
4.959932522289477
 30
0.0
 40
3.56276957225742
  0
TEXT
  5
5889
330
5882
100
AcDbEntity
  8
INTESTAZIONE
 62
     4
100
AcDbText
 10
4.466421604715776
 20
9.036434716691246
 30
0.0
 40
1.140479999999999
  1
N
  7
ROMANC
100
AcDbText
  0
TEXT
  5
588A
330
5882
100
AcDbEntity
  8
INTESTAZIONE
 62
     4
100
AcDbText
 10
-0.0543078658575382
 20
4.354344868903922
 30
0.0
 40
1.140479999999999
  1
W
  7
ROMANC
100
AcDbText
  0
LINE
  5
588B
330
5882
100
AcDbEntity
  8
2DMURI
100
AcDbLine
 10
5.101995967588948
 20
8.52270209454673
 30
0.0
 11
5.609579188360783
 21
5.467515743061085
 31
0.0
  0
LINE
  5
588C
330
5882
100
AcDbEntity
  8
2DMURI
100
AcDbLine
 10
5.609579188360783
 20
5.467515743061085
 30
0.0
 11
4.59441274681734
 21
4.452349301517642
 31
0.0
  0
LINE
  5
588D
330
5882
100
AcDbEntity
  8
2DMURI
100
AcDbLine
 10
4.59441274681734
 20
5.467515743061085
 30
0.0
 11
5.609579188360783
 21
4.452349301517642
 31
0.0
  0
SOLID
  5
588E
330
5882
100
AcDbEntity
  8
2DMURI
100
AcDbTrace
 10
5.101995967588948
 20
8.52270209454673
 30
0.0
 11
4.59441274681734
 21
5.467515743061198
 31
0.0
 12
5.101995967588948
 22
4.959932522289477
 32
0.0
 13
5.101995967588948
 23
4.959932522289477
 33
0.0
  0
LINE
  5
588F
330
5882
100
AcDbEntity
  8
2DMURI
100
AcDbLine
 10
5.101995967588948
 20
8.52270209454673
 30
0.0
 11
4.59441274681734
 21
5.467515743061085
 31
0.0
  0
TEXT
  5
5890
330
5882
100
AcDbEntity
  8
INTESTAZIONE
 62
     4
100
AcDbText
 10
4.466421604715776
 20
0.0000002371240271
 30
0.0
 40
1.140479999999999
  1
S
  7
ROMANC
100
AcDbText
  0
LINE
  5
5891
330
5882
100
AcDbEntity
  8
2DMURI
100
AcDbLine
 10
5.101995967589175
 20
8.522702094546616
 30
0.0
 11
5.101995967588948
 21
1.397162950031997
 31
0.0
  0
SOLID
  5
5892
330
5882
100
AcDbEntity
  8
2DMURI
100
AcDbTrace
 10
5.101995967588948
 20
4.959932522289477
 30
0.0
 11
5.101995967588948
 21
1.39716295003177
 31
0.0
 12
5.60957918836101
 22
4.452349301517642
 32
0.0
 13
5.60957918836101
 23
4.452349301517642
 33
0.0
  0
LINE
  5
5893
330
5882
100
AcDbEntity
  8
2DMURI
100
AcDbLine
 10
5.101995967588948
 20
1.39716295003177
 30
0.0
 11
5.609579188360783
 21
4.452349301517642
 31
0.0
  0
LINE
  5
5894
330
5882
100
AcDbEntity
  8
2DMURI
100
AcDbLine
 10
5.101995967588948
 20
1.39716295003177
 30
0.0
 11
4.59441274681734
 21
4.452349301517642
 31
0.0
  0
SOLID
  5
5895
330
5882
100
AcDbEntity
  8
2DMURI
100
AcDbTrace
 10
1.539226395331695
 20
4.95993252228925
 30
0.0
 11
5.101995967588948
 21
4.959932522289477
 31
0.0
 12
4.59441274681734
 22
4.452349301517642
 32
0.0
 13
4.59441274681734
 23
4.452349301517642
 33
0.0
  0
LINE
  5
5896
330
5882
100
AcDbEntity
  8
2DMURI
100
AcDbLine
 10
1.539226395331581
 20
4.95993252228925
 30
0.0
 11
4.59441274681734
 21
4.452349301517642
 31
0.0
  0
LINE
  5
5897
330
5882
100
AcDbEntity
  8
2DMURI
100
AcDbLine
 10
1.539226395331581
 20
4.95993252228925
 30
0.0
 11
4.59441274681734
 21
5.467515743061085
 31
0.0
  0
TEXT
  5
5898
330
5882
100
AcDbEntity
  8
INTESTAZIONE
 62
     4
100
AcDbText
 10
8.963729399537044
 20
4.354344868903922
 30
0.0
 40
1.140479999999999
  1
E
  7
ROMANC
100
AcDbText
  0
ENDBLK
  5
5899
330
5882
100
AcDbEntity
  8
0
100
AcDbBlockEnd
  0
ENDSEC
  0
SECTION
  2
ENTITIES
  0
TEXT
  5
448
330
17
100
AcDbEntity
  8
TT
 62
     1
100
AcDbText
 10
-1072.52683723847
 20
1873.555389625147
 30
0.0
 40
20.0
  1

  7
ROMANS
100
AcDbText
  0
TEXT
  5
4CA
330
17
100
AcDbEntity
  8
0
100
AcDbText
 10
4361.822085163367
 20
5138.958821909523
 30
0.0
 40
35.75
  1

 41
1.8
  7
ROMAND
100
AcDbText
  0
INSERT
  5
90C
330
17
100
AcDbEntity
  8
0
100
AcDbBlockReference
  2
cartiglioa4
 10
-1377.588525691382
 20
4503.166051976333
 30
0.0
  0
INSERT
  5
4E53
330
17
100
AcDbEntity
  8
0
100
AcDbBlockReference
  2
cartiglioa4
 10
-9525.474270070809
 20
1013.425452815019
 30
0.0
  0
TEXT
  5
4E5F
330
17
100
AcDbEntity
  8
SCRITTE-VARIE
100
AcDbText
 10
-1130.36288963009
 20
2175.472703432681
 30
0.0
 40
50.0
  1
PIANTA PIANO SEMINTERRATO
  7
ROMANT
100
AcDbText
  0
TEXT
  5
4E60
330
17
100
AcDbEntity
  8
SCRITTE-VARIE
100
AcDbText
 10
-1130.36288963009
 20
2076.671117495995
 30
0.0
 40
50.0
  1
STATO ATTUALE
  7
ROMANT
100
AcDbText
  0
TEXT
  5
4E67
330
17
100
AcDbEntity
  8
SCRITTE-VARIE
100
AcDbText
 10
-9285.008619803827
 20
-1413.069481665319
 30
0.0
 40
50.0
  1
STATO ATTUALE
  7
ROMANT
100
AcDbText
  0
TEXT
  5
4E68
330
17
100
AcDbEntity
  8
SCRITTE-VARIE
100
AcDbText
 10
-9285.008619803827
 20
-1314.267895728633
 30
0.0
 40
50.0
  1
PIANTA PIANO TERRENO 
  7
ROMANT
100
AcDbText
  0
INSERT
  5
4E92
330
17
100
AcDbEntity
  8
0
100
AcDbBlockReference
  2
cartiglioa4
 10
-4039.381201909033
 20
1013.425452815019
 30
0.0
  0
INSERT
  5
4F2A
330
17
100
AcDbEntity
  8
0
100
AcDbBlockReference
  2
cartiglioa4
 10
-6713.101761605641
 20
1013.425452815019
 30
0.0
  0
TEXT
  5
50BE
330
17
100
AcDbEntity
  8
SCRITTE-VARIE
100
AcDbText
 10
-6527.032884915136
 20
-1308.673219366705
 30
0.0
 40
50.0
  1
PIANTA PIANO PRIMO
  7
ROMANT
100
AcDbText
  0
TEXT
  5
50BF
330
17
100
AcDbEntity
  8
SCRITTE-VARIE
100
AcDbText
 10
-6527.032884915136
 20
-1407.474805303391
 30
0.0
 40
50.0
  1
STATO ATTUALE
  7
ROMANT
100
AcDbText
  0
TEXT
  5
50C8
330
17
100
AcDbEntity
  8
SCRITTE-VARIE
100
AcDbText
 10
-3816.536528364181
 20
-1306.698520106029
 30
0.0
 40
50.0
  1
PIANTA PIANO SECONDO
  7
ROMANT
100
AcDbText
  0
TEXT
  5
50C9
330
17
100
AcDbEntity
  8
SCRITTE-VARIE
100
AcDbText
 10
-3816.536528364181
 20
-1405.500106042715
 30
0.0
 40
50.0
  1
STATO ATTUALE
  7
ROMANT
100
AcDbText
  0
TEXT
  5
50D1
330
17
100
AcDbEntity
  8
SCRITTE-VARIE
100
AcDbText
 10
430.8915322455477
 20
1728.486197473934
 30
0.0
 40
100.0
  1
4
  7
ROMANT
100
AcDbText
  0
TEXT
  5
50D9
330
17
100
AcDbEntity
  8
SCRITTE-VARIE
100
AcDbText
 10
-7727.28866094727
 20
-1758.429280725868
 30
0.0
 40
100.0
  1
5
  7
ROMANT
100
AcDbText
  0
TEXT
  5
50DF
330
17
100
AcDbEntity
  8
SCRITTE-VARIE
100
AcDbText
 10
-4912.782368492113
 20
-1762.841889912197
 30
0.0
 40
100.0
  1
6
  7
ROMANT
100
AcDbText
  0
TEXT
  5
50E5
330
17
100
AcDbEntity
  8
SCRITTE-VARIE
100
AcDbText
 10
-2238.452406535922
 20
-1762.217503380101
 30
0.0
 40
100.0
  1
7
  7
ROMANT
100
AcDbText
  0
TEXT
  5
50EB
330
17
100
AcDbEntity
  8
SCRITTE-VARIE
100
AcDbText
 10
-2371.860863876624
 20
-1239.005061436152
 30
0.0
 40
15.0
  1
FDD02007
  7
ROMANT
100
AcDbText
  0
TEXT
  5
50F2
330
17
100
AcDbEntity
  8
SCRITTE-VARIE
100
AcDbText
 10
-7849.194869658714
 20
-1246.970350704425
 30
0.0
 40
15.0
  1
FDD00005
  7
ROMANT
100
AcDbText
  0
TEXT
  5
50F8
330
17
100
AcDbEntity
  8
SCRITTE-VARIE
100
AcDbText
 10
293.9708643547101
 20
2250.942396510103
 30
0.0
 40
15.0
  1
FDD-1004
  7
ROMANT
100
AcDbText
  0
TEXT
  5
50FE
330
17
100
AcDbEntity
  8
SCRITTE-VARIE
100
AcDbText
 10
-5045.964972033903
 20
-1237.930866791059
 30
0.0
 40
15.0
  1
statoattuale
  7
ROMANT
100
AcDbText
  0
TEXT
  5
5C94
330
17
100
AcDbEntity
  8
SCRITTE-VARIE
100
AcDbText
 10
289.9318123410267
 20
-1239.005061436152
 30
0.0
 40
15.0
  1
FDSAA008
  7
ROMANT
100
AcDbText
  0
TEXT
  5
5C95
330
17
100
AcDbEntity
  8
SCRITTE-VARIE
100
AcDbText
 10
423.3402696817283
 20
-1762.217503380101
 30
0.0
 40
100.0
  1
8
  7
ROMANT
100
AcDbText
  0
TEXT
  5
5C96
330
17
100
AcDbEntity
  8
SCRITTE-VARIE
100
AcDbText
 10
-1154.74385214653
 20
-1405.500106042715
 30
0.0
 40
50.0
  1
STATO ATTUALE
  7
ROMANT
100
AcDbText
  0
TEXT
  5
5C97
330
17
100
AcDbEntity
  8
SCRITTE-VARIE
100
AcDbText
 10
-1154.74385214653
 20
-1306.698520106029
 30
0.0
 40
50.0
  1
SEZIONE A-A
  7
ROMANT
100
AcDbText
  0
INSERT
  5
5C98
330
17
100
AcDbEntity
  8
0
100
AcDbBlockReference
  2
cartiglioa4
 10
-1377.588525691382
 20
1013.425452815019
 30
0.0
  0
INSERT
  5
5CAA
330
17
100
AcDbEntity
  8
0
100
AcDbBlockReference
  2
cartiglioa4
 10
-9525.474270070809
 20
-2492.629523545053
 30
0.0
  0
TEXT
  5
5CAB
330
17
100
AcDbEntity
  8
SCRITTE-VARIE
100
AcDbText
 10
-9302.629596525957
 20
-4812.7534964661
 30
0.0
 40
50.0
  1
DOCUMENTAZIONE FOTOGRAFICA
  7
ROMANT
100
AcDbText
  0
TEXT
  5
5CAC
330
17
100
AcDbEntity
  8
SCRITTE-VARIE
100
AcDbText
 10
-9302.629596525957
 20
-4911.555082402787
 30
0.0
 40
50.0
  1
ESTERNO
  7
ROMANT
100
AcDbText
  0
TEXT
  5
5CAD
330
17
100
AcDbEntity
  8
SCRITTE-VARIE
100
AcDbText
 10
-7724.545474697698
 20
-5268.272479740173
 30
0.0
 40
100.0
  1
9
  7
ROMANT
100
AcDbText
  0
TEXT
  5
5CAE
330
17
100
AcDbEntity
  8
SCRITTE-VARIE
100
AcDbText
 10
-7857.9539320384
 20
-4745.060037796224
 30
0.0
 40
15.0
  1
FOTOESTERNO
  7
ROMANT
100
AcDbText
  0
TEXT
  5
5CAF
330
17
100
AcDbEntity
  8
SCRITTE-VARIE
100
AcDbText
 10
-5045.581423573232
 20
-4745.060037796224
 30
0.0
 40
15.0
  1
FOTOCONTEST
  7
ROMANT
100
AcDbText
  0
TEXT
  5
5CB0
330
17
100
AcDbEntity
  8
SCRITTE-VARIE
100
AcDbText
 10
-4974.398582598297
 20
-5268.272479740173
 30
0.0
 40
100.0
  1
10
  7
ROMANT
100
AcDbText
  0
TEXT
  5
5CB1
330
17
100
AcDbEntity
  8
SCRITTE-VARIE
100
AcDbText
 10
-6490.25708806079
 20
-4911.555082402787
 30
0.0
 40
50.0
  1
CONTESTO URBANO
  7
ROMANT
100
AcDbText
  0
TEXT
  5
5CB2
330
17
100
AcDbEntity
  8
SCRITTE-VARIE
100
AcDbText
 10
-6490.25708806079
 20
-4812.7534964661
 30
0.0
 40
50.0
  1
DOCUMENTAZIONE FOTOGRAFICA
  7
ROMANT
100
AcDbText
  0
INSERT
  5
5CB3
330
17
100
AcDbEntity
  8
0
100
AcDbBlockReference
  2
cartiglioa4
 10
-6713.101761605641
 20
-2492.629523545053
 30
0.0
  0
TEXT
  5
5CC3
330
17
100
AcDbEntity
  8
SCRITTE-VARIE
100
AcDbText
 10
-2372.244412337295
 20
2251.809732370253
 30
0.0
 40
15.0
  1
plangen
  7
ROMANT
100
AcDbText
  0
TEXT
  5
5CC4
330
17
100
AcDbEntity
  8
SCRITTE-VARIE
100
AcDbText
 10
-7853.914880024714
 20
2267.181668006831
 30
0.0
 40
15.0
  1
f12bcor.pdf
  7
ROMANT
100
AcDbText
  0
TEXT
  5
5CC5
330
17
100
AcDbEntity
  8
SCRITTE-VARIE
100
AcDbText
 10
-5028.147081311451
 20
2242.770248456889
 30
0.0
 40
15.0
  1
planfoto
  7
ROMANT
100
AcDbText
  0
TEXT
  5
5CC6
330
17
100
AcDbEntity
  8
SCRITTE-VARIE
100
AcDbText
 10
-2239.061808795504
 20
1726.898709249114
 30
0.0
 40
100.0
  1
3
  7
ROMANT
100
AcDbText
  0
TEXT
  5
5CC7
330
17
100
AcDbEntity
  8
SCRITTE-VARIE
100
AcDbText
 10
-4906.240872600008
 20
1731.311318435446
 30
0.0
 40
100.0
  1
2
  7
ROMANT
100
AcDbText
  0
TEXT
  5
5CC8
330
17
100
AcDbEntity
  8
SCRITTE-VARIE
100
AcDbText
 10
-7716.994212133876
 20
1728.486197473934
 30
0.0
 40
100.0
  1
1
  7
ROMANT
100
AcDbText
  0
TEXT
  5
5CCA
330
17
100
AcDbEntity
  8
SCRITTE-VARIE
100
AcDbText
 10
-3853.312325218529
 20
2181.067379794606
 30
0.0
 40
50.0
  1
PLANIMETRIA GENERALE
  7
ROMANT
100
AcDbText
  0
INSERT
  5
5CCB
330
17
100
AcDbEntity
  8
0
100
AcDbBlockReference
  2
cartiglioa4
 10
-4039.381201909033
 20
4503.166051976331
 30
0.0
  0
TEXT
  5
5CCC
330
17
100
AcDbEntity
  8
SCRITTE-VARIE
100
AcDbText
 10
-6463.960831456564
 20
2175.472703432681
 30
0.0
 40
50.0
  1
CARTA TECNICA 
  7
ROMANT
100
AcDbText
  0
TEXT
  5
5CCF
330
17
100
AcDbEntity
  8
SCRITTE-VARIE
100
AcDbText
 10
-9278.248634009512
 20
2175.472703432681
 30
0.0
 40
50.0
  1
ESTRATTO P.R.G.
  7
ROMANT
100
AcDbText
  0
INSERT
  5
5CD0
330
17
100
AcDbEntity
  8
0
100
AcDbBlockReference
  2
cartiglioa4
 10
-6704.426481723544
 20
4503.166051976333
 30
0.0
  0
INSERT
  5
5CD1
330
17
100
AcDbEntity
  8
0
100
AcDbBlockReference
  2
cartiglioa4
 10
-9525.474270070807
 20
4503.166051976333
 30
0.0
  0
TEXT
  5
5CD2
330
17
100
AcDbEntity
  8
SCRITTE-VARIE
100
AcDbText
 10
-7853.914880024714
 20
2231.455232524868
 30
0.0
 40
15.0
  1
lege5000.pdf
  7
ROMANT
100
AcDbText
  0
TEXT
  5
5CD3
330
17
100
AcDbEntity
  8
SCRITTE-VARIE
100
AcDbText
 10
-7778.206585323701
 20
2022.53516957124
 30
0.0
 40
30.0
  1
1:5000
  7
ROMANT
100
AcDbText
  0
TEXT
  5
5CD4
330
17
100
AcDbEntity
  8
SCRITTE-VARIE
100
AcDbText
 10
-4779.384275562007
 20
2242.770248456889
 30
0.0
 40
15.0
  1
1:2
  7
ROMANT
100
AcDbText
  0
TEXT
  5
5CD5
330
17
100
AcDbEntity
  8
SCRITTE-VARIE
100
AcDbText
 10
-4913.392703459661
 20
2022.53516957124
 30
0.0
 40
30.0
  1
1:2000
  7
ROMANT
100
AcDbText
  0
TEXT
  5
5CD8
330
17
100
AcDbEntity
  8
SCRITTE-VARIE
100
AcDbText
 10
-2115.986356910285
 20
2251.809732370253
 30
0.0
 40
15.0
  1
1:1
  7
ROMANT
100
AcDbText
  0
TEXT
  5
5CD9
330
17
100
AcDbEntity
  8
SCRITTE-VARIE
100
AcDbText
 10
-2257.391394804338
 20
2022.535169571237
 30
0.0
 40
30.0
  1
1:1000
  7
ROMANT
100
AcDbText
  0
ENDSEC
  0
SECTION
  2
OBJECTS
  0
DICTIONARY
  5
C
330
0
100
AcDbDictionary
281
     1
  3
ACAD_COLOR
350
8EF
  3
ACAD_GROUP
350
D
  3
ACAD_LAYOUT
350
8F0
  3
ACAD_MATERIAL
350
8EE
  3
ACAD_MLINESTYLE
350
1A
  3
ACAD_PLOTSETTINGS
350
8F1
  3
ACAD_PLOTSTYLENAME
350
8EC
  3
ACDBVARIABLEDICTIONARY
350
56
  3
ASE_INDEX_DICTIONARY
350
5905
  0
DICTIONARY
  5
8EF
102
{ACAD_REACTORS
330
C
102
}
330
C
100
AcDbDictionary
281
     1
  0
DICTIONARY
  5
D
102
{ACAD_REACTORS
330
C
102
}
330
C
100
AcDbDictionary
281
     1
  0
DICTIONARY
  5
8F0
102
{ACAD_REACTORS
330
C
102
}
330
C
100
AcDbDictionary
281
     1
  3
Layout1
350
8F3
  3
Model
350
8F2
  0
DICTIONARY
  5
8EE
102
{ACAD_REACTORS
330
C
102
}
330
C
100
AcDbDictionary
281
     1
  0
DICTIONARY
  5
1A
102
{ACAD_REACTORS
330
C
102
}
330
C
100
AcDbDictionary
281
     1
  3
STANDARD
350
1B
  0
DICTIONARY
  5
8F1
102
{ACAD_REACTORS
330
C
102
}
330
C
100
AcDbDictionary
281
     1
  0
ACDBDICTIONARYWDFLT
  5
8EC
102
{ACAD_REACTORS
330
C
102
}
330
C
100
AcDbDictionary
281
     1
  3
Normal
350
8ED
100
AcDbDictionaryWithDefault
340
8ED
  0
DICTIONARY
  5
56
102
{ACAD_REACTORS
330
C
102
}
330
C
100
AcDbDictionary
281
     1
  3
DIMADEC
350
57
  0
DICTIONARY
  5
5905
102
{ACAD_REACTORS
330
C
102
}
330
C
100
AcDbDictionary
281
     1
  3
ASEBlockHierarchyIndexRecord
350
5907
1001
DCO15
1040
1545389685.109
  0
LAYOUT
  5
8F3
102
{ACAD_REACTORS
330
8F0
102
}
330
8F0
100
AcDbPlotSettings
  1

  2
HP uff. 19
  4

  6

 40
0.0
 41
0.0
 42
0.0
 43
0.0
 44
0.0
 45
0.0
 46
0.0
 47
0.0
 48
0.0
 49
0.0
140
0.0
141
0.0
142
1.0
143
1.0
 70
   688
 72
     0
 73
     0
 74
     5
  7
monochrome.ctb
 75
    16
147
1.0
 76
     0
 77
     2
 78
   300
148
0.0
149
0.0
100
AcDbLayout
  1
Layout1
 70
     1
 71
     1
 10
0.0
 20
0.0
 11
12.0
 21
9.0
 12
0.0
 22
0.0
 32
0.0
 14
1.000000000000000E+20
 24
1.000000000000000E+20
 34
1.000000000000000E+20
 15
-1.000000000000000E+20
 25
-1.000000000000000E+20
 35
-1.000000000000000E+20
146
0.0
 13
0.0
 23
0.0
 33
0.0
 16
1.0
 26
0.0
 36
0.0
 17
0.0
 27
1.0
 37
0.0
 76
     0
330
14
  0
LAYOUT
  5
8F2
102
{ACAD_REACTORS
330
8F0
102
}
330
8F0
100
AcDbPlotSettings
  1

  2
HP uff. 19
  4
A4
  6

 40
6.011333465576171
 41
4.233341693878173
 42
6.011322021484375
 43
4.23333740234375
 44
209.9733276367187
 45
296.9259948730469
 46
0.0
 47
4.25
 48
-6713.101761605641
 49
-5462.629523545053
140
-4613.101761605642
141
-2492.629523545053
142
1.0
143
10.60870355829012
 70
 11956
 72
     1
 73
     0
 74
     4
  7
monochrome.ctb
 75
     0
147
0.0942622248331706
 76
     0
 77
     2
 78
   300
148
6713.101761605641
149
5462.629523545053
100
AcDbLayout
  1
Model
 70
     1
 71
     0
 10
0.0
 20
0.0
 11
12.0
 21
9.0
 12
0.0
 22
0.0
 32
0.0
 14
0.0
 24
0.0
 34
0.0
 15
0.0
 25
0.0
 35
0.0
146
0.0
 13
0.0
 23
0.0
 33
0.0
 16
1.0
 26
0.0
 36
0.0
 17
0.0
 27
1.0
 37
0.0
 76
     0
330
17
  0
MLINESTYLE
  5
1B
102
{ACAD_REACTORS
330
1A
102
}
330
1A
100
AcDbMlineStyle
  2
STANDARD
 70
     0
  3

 62
   256
 51
90.0
 52
90.0
 71
     2
 49
0.5
 62
   256
  6
BYLAYER
 49
-0.5
 62
   256
  6
BYLAYER
  0
ACDBPLACEHOLDER
  5
8ED
102
{ACAD_REACTORS
330
8EC
102
}
330
8EC
  0
DICTIONARYVAR
  5
57
102
{ACAD_REACTORS
330
56
102
}
330
56
100
DictionaryVariables
280
     0
  1
0
  0
XRECORD
  5
5907
102
{ACAD_REACTORS
330
5905
102
}
330
5905
100
AcDbXrecord
280
     1
330
0
330
0
330
0
330
0
330
0
330
0
330
0
330
0
330
0
330
0
330
0
330
0
330
0
330
0
330
0
330
0
330
0
330
0
330
0
330
0
330
0
330
0
330
0
330
0
330
0
330
0
330
0
330
0
330
0
330
0
330
0
330
0
330
0
330
0
330
0
330
0
330
0
330
0
330
0
330
0
330
0
330
0
330
0
330
0
330
0
330
0
330
0
330
0
330
0
330
0
330
0
330
0
330
0
330
0
330
0
330
0
330
0
330
0
330
0
330
0
330
0
330
0
330
0
330
0
330
0
330
0
330
0
330
0
330
0
330
0
330
0
330
0
330
0
330
0
330
0
330
0
330
0
330
0
330
0
330
0
330
0
330
0
330
0
330
0
330
0
330
0
330
0
330
0
330
0
330
0
330
0
330
0
330
0
330
0
330
0
330
0
330
0
330
0
330
0
330
0
330
0
330
0
330
0
330
0
330
0
330
0
330
0
330
0
330
0
330
0
330
0
330
0
330
0
330
0
330
0
330
0
330
0
330
0
330
0
330
0
330
0
330
0
330
0
330
0
330
0
330
0
330
0
330
0
330
0
330
0
330
0
330
90C
330
0
330
0
330
0
330
0
330
0
330
0
330
0
330
0
330
0
330
0
330
0
330
0
330
0
330
0
330
0
330
0
330
0
330
0
330
0
330
0
330
0
330
0
330
0
330
0
330
0
330
0
330
0
330
0
330
0
330
0
330
0
330
0
330
0
330
0
330
0
330
0
330
0
330
0
330
0
330
0
330
0
330
0
330
0
330
0
330
0
330
0
330
0
330
0
330
0
330
0
330
0
330
0
330
0
330
0
330
0
330
0
330
0
330
0
330
0
330
0
330
0
330
0
330
0
330
0
330
0
330
0
330
0
330
0
330
0
330
0
330
0
330
0
330
0
330
0
330
0
330
0
330
0
330
0
330
0
330
0
330
0
330
0
330
0
330
0
330
0
330
0
330
0
330
0
330
0
330
0
330
0
330
0
330
0
330
0
330
0
330
0
330
0
330
0
330
0
330
0
330
0
330
0
330
0
330
0
330
0
330
0
330
0
330
0
330
0
330
0
330
0
330
0
330
0
330
0
330
0
330
0
330
0
330
0
330
0
330
0
330
0
330
0
330
0
330
0
330
0
330
0
330
0
330
0
330
0
330
0
330
0
330
0
330
0
330
0
330
0
330
0
330
0
330
0
330
0
330
0
330
0
330
0
330
0
330
0
330
0
330
0
330
0
330
0
330
0
330
0
330
0
330
0
330
0
330
0
330
0
330
0
330
0
330
0
330
0
330
0
330
0
330
0
330
0
330
0
330
0
330
0
330
0
330
0
330
0
330
0
330
0
330
0
330
0
330
0
330
0
330
0
330
0
330
0
330
0
330
0
330
0
330
0
330
0
330
0
330
0
330
0
330
0
330
0
330
0
330
0
330
0
330
0
330
0
330
0
330
0
330
0
330
0
330
0
330
0
330
0
330
0
330
0
330
0
330
0
330
0
330
0
330
0
330
0
330
0
330
0
330
0
330
0
330
0
330
0
330
0
330
0
330
0
330
0
330
0
330
0
330
0
330
0
330
0
330
0
330
0
330
0
330
0
330
0
330
0
330
0
330
0
330
0
330
0
330
0
330
0
330
0
330
0
330
0
330
0
330
0
330
0
330
0
330
0
330
0
330
0
330
0
330
0
330
0
330
0
330
0
330
0
330
0
330
0
330
0
330
0
330
0
330
0
330
0
330
0
330
0
330
0
330
0
330
0
330
0
330
0
330
0
330
0
330
0
330
0
330
0
330
0
330
0
330
0
330
0
330
0
330
0
330
0
330
0
330
0
330
0
330
0
330
0
330
0
330
0
330
0
330
0
330
0
330
0
330
0
330
0
330
0
330
0
330
0
330
0
330
0
330
0
330
0
330
0
330
0
330
0
330
0
330
0
330
0
330
0
330
0
330
0
330
0
330
0
330
0
330
0
330
0
330
0
330
0
330
0
330
0
330
0
330
0
330
0
330
0
330
0
330
0
330
0
330
0
330
0
330
0
330
0
330
0
330
0
330
0
330
0
330
0
330
0
330
0
330
0
330
0
330
0
330
0
330
0
330
0
330
0
330
0
330
0
330
0
330
0
330
0
330
0
330
0
330
0
330
0
330
0
330
0
330
0
330
0
330
0
330
0
330
0
330
0
330
0
330
0
330
0
330
0
330
0
330
0
330
0
330
0
330
0
330
0
330
0
330
0
330
0
330
0
330
0
330
0
330
0
330
0
330
0
330
0
330
0
330
0
330
0
330
0
330
0
330
0
330
0
330
0
330
0
330
0
330
0
330
4E53
330
4E92
330
4F2A
330
0
330
0
330
0
330
0
330
0
330
0
330
0
330
0
330
0
330
0
330
0
330
0
330
0
330
0
330
0
330
0
330
0
330
0
330
0
  0
ENDSEC
  0
EOF
