  0
SECTION
  2
HEADER
  9
$ACADVER
  1
AC1018
  9
$ACADMAINTVER
 70
     2
  9
$DWGCODEPAGE
  3
ANSI_1252
  9
$INSBASE
 10
0.0
 20
0.0
 30
0.0
  9
$EXTMIN
 10
342.9982384351934
 20
257.9823535494561
 30
0.0
  9
$EXTMAX
 10
9114.851250497251
 20
7634.820865342504
 30
0.0
  9
$LIMMIN
 10
0.0
 20
0.0
  9
$LIMMAX
 10
420.0
 20
297.0
  9
$ORTHOMODE
 70
     1
  9
$REGENMODE
 70
     1
  9
$FILLMODE
 70
     1
  9
$QTEXTMODE
 70
     0
  9
$MIRRTEXT
 70
     0
  9
$LTSCALE
 40
1.0
  9
$ATTMODE
 70
     1
  9
$TEXTSIZE
 40
2.5
  9
$TRACEWID
 40
1.0
  9
$TEXTSTYLE
  7
Standard
  9
$CLAYER
  8
TT
  9
$CELTYPE
  6
ByLayer
  9
$CECOLOR
 62
   256
  9
$CELTSCALE
 40
1.0
  9
$DISPSILH
 70
     0
  9
$DIMSCALE
 40
1.0
  9
$DIMASZ
 40
2.5
  9
$DIMEXO
 40
0.625
  9
$DIMDLI
 40
3.75
  9
$DIMRND
 40
0.0
  9
$DIMDLE
 40
0.0
  9
$DIMEXE
 40
1.25
  9
$DIMTP
 40
0.0
  9
$DIMTM
 40
0.0
  9
$DIMTXT
 40
2.5
  9
$DIMCEN
 40
2.5
  9
$DIMTSZ
 40
0.0
  9
$DIMTOL
 70
     0
  9
$DIMLIM
 70
     0
  9
$DIMTIH
 70
     0
  9
$DIMTOH
 70
     0
  9
$DIMSE1
 70
     0
  9
$DIMSE2
 70
     0
  9
$DIMTAD
 70
     1
  9
$DIMZIN
 70
     8
  9
$DIMBLK
  1

  9
$DIMASO
 70
     1
  9
$DIMSHO
 70
     1
  9
$DIMPOST
  1

  9
$DIMAPOST
  1

  9
$DIMALT
 70
     0
  9
$DIMALTD
 70
     3
  9
$DIMALTF
 40
0.03937007874016
  9
$DIMLFAC
 40
1.0
  9
$DIMTOFL
 70
     1
  9
$DIMTVP
 40
0.0
  9
$DIMTIX
 70
     0
  9
$DIMSOXD
 70
     0
  9
$DIMSAH
 70
     0
  9
$DIMBLK1
  1

  9
$DIMBLK2
  1

  9
$DIMSTYLE
  2
ISO-25
  9
$DIMCLRD
 70
     0
  9
$DIMCLRE
 70
     0
  9
$DIMCLRT
 70
     0
  9
$DIMTFAC
 40
1.0
  9
$DIMGAP
 40
0.625
  9
$DIMJUST
 70
     0
  9
$DIMSD1
 70
     0
  9
$DIMSD2
 70
     0
  9
$DIMTOLJ
 70
     0
  9
$DIMTZIN
 70
     8
  9
$DIMALTZ
 70
     0
  9
$DIMALTTZ
 70
     0
  9
$DIMUPT
 70
     0
  9
$DIMDEC
 70
     2
  9
$DIMTDEC
 70
     2
  9
$DIMALTU
 70
     2
  9
$DIMALTTD
 70
     3
  9
$DIMTXSTY
  7
Standard
  9
$DIMAUNIT
 70
     0
  9
$DIMADEC
 70
     0
  9
$DIMALTRND
 40
0.0
  9
$DIMAZIN
 70
     0
  9
$DIMDSEP
 70
    44
  9
$DIMATFIT
 70
     3
  9
$DIMFRAC
 70
     0
  9
$DIMLDRBLK
  1

  9
$DIMLUNIT
 70
     2
  9
$DIMLWD
 70
    -2
  9
$DIMLWE
 70
    -2
  9
$DIMTMOVE
 70
     0
  9
$LUNITS
 70
     2
  9
$LUPREC
 70
     4
  9
$SKETCHINC
 40
1.0
  9
$FILLETRAD
 40
0.0
  9
$AUNITS
 70
     0
  9
$AUPREC
 70
     0
  9
$MENU
  1
.
  9
$ELEVATION
 40
0.0
  9
$PELEVATION
 40
0.0
  9
$THICKNESS
 40
0.0
  9
$LIMCHECK
 70
     0
  9
$CHAMFERA
 40
0.0
  9
$CHAMFERB
 40
0.0
  9
$CHAMFERC
 40
0.0
  9
$CHAMFERD
 40
0.0
  9
$SKPOLY
 70
     0
  9
$TDCREATE
 40
2453706.647170313
  9
$TDUCREATE
 40
2453706.605503646
  9
$TDUPDATE
 40
2453801.507869826
  9
$TDUUPDATE
 40
2453801.466203159
  9
$TDINDWG
 40
0.0671135417
  9
$TDUSRTIMER
 40
0.0671135417
  9
$USRTIMER
 70
     1
  9
$ANGBASE
 50
0.0
  9
$ANGDIR
 70
     0
  9
$PDMODE
 70
     0
  9
$PDSIZE
 40
0.0
  9
$PLINEWID
 40
0.0
  9
$SPLFRAME
 70
     0
  9
$SPLINETYPE
 70
     6
  9
$SPLINESEGS
 70
     8
  9
$HANDSEED
  5
EF3
  9
$SURFTAB1
 70
     6
  9
$SURFTAB2
 70
     6
  9
$SURFTYPE
 70
     6
  9
$SURFU
 70
     6
  9
$SURFV
 70
     6
  9
$UCSBASE
  2

  9
$UCSNAME
  2

  9
$UCSORG
 10
0.0
 20
0.0
 30
0.0
  9
$UCSXDIR
 10
1.0
 20
0.0
 30
0.0
  9
$UCSYDIR
 10
0.0
 20
1.0
 30
0.0
  9
$UCSORTHOREF
  2

  9
$UCSORTHOVIEW
 70
     0
  9
$UCSORGTOP
 10
0.0
 20
0.0
 30
0.0
  9
$UCSORGBOTTOM
 10
0.0
 20
0.0
 30
0.0
  9
$UCSORGLEFT
 10
0.0
 20
0.0
 30
0.0
  9
$UCSORGRIGHT
 10
0.0
 20
0.0
 30
0.0
  9
$UCSORGFRONT
 10
0.0
 20
0.0
 30
0.0
  9
$UCSORGBACK
 10
0.0
 20
0.0
 30
0.0
  9
$PUCSBASE
  2

  9
$PUCSNAME
  2

  9
$PUCSORG
 10
0.0
 20
0.0
 30
0.0
  9
$PUCSXDIR
 10
1.0
 20
0.0
 30
0.0
  9
$PUCSYDIR
 10
0.0
 20
1.0
 30
0.0
  9
$PUCSORTHOREF
  2

  9
$PUCSORTHOVIEW
 70
     0
  9
$PUCSORGTOP
 10
0.0
 20
0.0
 30
0.0
  9
$PUCSORGBOTTOM
 10
0.0
 20
0.0
 30
0.0
  9
$PUCSORGLEFT
 10
0.0
 20
0.0
 30
0.0
  9
$PUCSORGRIGHT
 10
0.0
 20
0.0
 30
0.0
  9
$PUCSORGFRONT
 10
0.0
 20
0.0
 30
0.0
  9
$PUCSORGBACK
 10
0.0
 20
0.0
 30
0.0
  9
$USERI1
 70
     0
  9
$USERI2
 70
     0
  9
$USERI3
 70
     0
  9
$USERI4
 70
     0
  9
$USERI5
 70
     0
  9
$USERR1
 40
0.0
  9
$USERR2
 40
0.0
  9
$USERR3
 40
0.0
  9
$USERR4
 40
0.0
  9
$USERR5
 40
0.0
  9
$WORLDVIEW
 70
     1
  9
$SHADEDGE
 70
     3
  9
$SHADEDIF
 70
    70
  9
$TILEMODE
 70
     1
  9
$MAXACTVP
 70
    64
  9
$PINSBASE
 10
0.0
 20
0.0
 30
0.0
  9
$PLIMCHECK
 70
     0
  9
$PEXTMIN
 10
576.9186315536499
 20
395.9013442993164
 30
0.0
  9
$PEXTMAX
 10
5192.267683982849
 20
3563.112098693848
 30
0.0
  9
$PLIMMIN
 10
-84.666748046875
 20
-120.2266693115234
  9
$PLIMMAX
 10
5853.853149414063
 20
4079.239883422851
  9
$UNITMODE
 70
     0
  9
$VISRETAIN
 70
     1
  9
$PLINEGEN
 70
     0
  9
$PSLTSCALE
 70
     1
  9
$TREEDEPTH
 70
  3020
  9
$CMLSTYLE
  2
Standard
  9
$CMLJUST
 70
     0
  9
$CMLSCALE
 40
20.0
  9
$PROXYGRAPHICS
 70
     1
  9
$MEASUREMENT
 70
     1
  9
$CELWEIGHT
370
    -1
  9
$ENDCAPS
280
     0
  9
$JOINSTYLE
280
     0
  9
$LWDISPLAY
290
     0
  9
$INSUNITS
 70
     4
  9
$HYPERLINKBASE
  1

  9
$STYLESHEET
  1
monochrome.ctb
  9
$XEDIT
290
     1
  9
$CEPSNTYPE
380
     0
  9
$PSTYLEMODE
290
     1
  9
$FINGERPRINTGUID
  2
{82FD4B6E-A590-11D2-9A33-0060089B3A3F}
  9
$VERSIONGUID
  2
{D5DEE27D-1FDC-4375-8D2C-F606B1BC896B}
  9
$EXTNAMES
290
     1
  9
$PSVPSCALE
 40
0.0
  9
$OLESTARTUP
290
     0
  9
$SORTENTS
280
   127
  9
$INDEXCTL
280
     0
  9
$HIDETEXT
280
     1
  9
$XCLIPFRAME
290
     0
  9
$HALOGAP
280
     0
  9
$OBSCOLOR
 70
   257
  9
$OBSLTYPE
280
     0
  9
$INTERSECTIONDISPLAY
280
     0
  9
$INTERSECTIONCOLOR
 70
   257
  9
$DIMASSOC
280
     2
  9
$PROJECTNAME
  1

  0
ENDSEC
  0
SECTION
  2
CLASSES
  0
CLASS
  1
ACDBDICTIONARYWDFLT
  2
AcDbDictionaryWithDefault
  3
ObjectDBX Classes
 90
        0
 91
        1
280
     0
281
     0
  0
CLASS
  1
PLOTSETTINGS
  2
AcDbPlotSettings
  3
ObjectDBX Classes
 90
        0
 91
        1
280
     0
281
     0
  0
CLASS
  1
DICTIONARYVAR
  2
AcDbDictionaryVar
  3
ObjectDBX Classes
 90
        0
 91
        3
280
     0
281
     0
  0
CLASS
  1
RASTERVARIABLES
  2
AcDbRasterVariables
  3
ISM
 90
        0
 91
        1
280
     0
281
     0
  0
CLASS
  1
IMAGEDEF
  2
AcDbRasterImageDef
  3
ISM
 90
        0
 91
        3
280
     0
281
     0
  0
CLASS
  1
IMAGEDEF_REACTOR
  2
AcDbRasterImageDefReactor
  3
ISM
 90
        1
 91
        3
280
     0
281
     0
  0
CLASS
  1
IMAGE
  2
AcDbRasterImage
  3
ISM
 90
      127
 91
        3
280
     0
281
     1
  0
ENDSEC
  0
SECTION
  2
TABLES
  0
TABLE
  2
VPORT
  5
8
330
0
100
AcDbSymbolTable
 70
     2
  0
VPORT
  5
EF2
330
8
100
AcDbSymbolTableRecord
100
AcDbViewportTableRecord
  2
*Active
 70
     0
 10
0.0
 20
0.0
 11
1.0
 21
1.0
 12
6388.608436923154
 22
3436.779570481223
 13
0.0
 23
0.0
 14
10.0
 24
10.0
 15
10.0
 25
10.0
 16
0.0
 26
0.0
 36
1.0
 17
0.0
 27
0.0
 37
0.0
 40
11214.78590387936
 41
1.757855822550831
 42
50.0
 43
0.0
 44
0.0
 50
0.0
 51
0.0
 71
     0
 72
  1000
 73
     1
 74
     3
 75
     0
 76
     0
 77
     0
 78
     0
281
     0
 65
     1
110
0.0
120
0.0
130
0.0
111
1.0
121
0.0
131
0.0
112
0.0
122
1.0
132
0.0
 79
     0
146
0.0
  0
ENDTAB
  0
TABLE
  2
LTYPE
  5
5
330
0
100
AcDbSymbolTable
 70
     4
  0
LTYPE
  5
14
330
5
100
AcDbSymbolTableRecord
100
AcDbLinetypeTableRecord
  2
ByBlock
 70
     0
  3

 72
    65
 73
     0
 40
0.0
  0
LTYPE
  5
15
330
5
100
AcDbSymbolTableRecord
100
AcDbLinetypeTableRecord
  2
ByLayer
 70
     0
  3

 72
    65
 73
     0
 40
0.0
  0
LTYPE
  5
16
330
5
100
AcDbSymbolTableRecord
100
AcDbLinetypeTableRecord
  2
Continuous
 70
     0
  3
Solid line
 72
    65
 73
     0
 40
0.0
  0
LTYPE
  5
43F
330
5
100
AcDbSymbolTableRecord
100
AcDbLinetypeTableRecord
  2
DASHDOT2
 70
     0
  3
_._._._._._._._._._._._._._._._._._._._._._._._
 72
    65
 73
     4
 40
0.5
 49
0.25
 74
     0
 49
-0.125
 74
     0
 49
0.0
 74
     0
 49
-0.125
 74
     0
  0
LTYPE
  5
E9E
330
5
100
AcDbSymbolTableRecord
100
AcDbLinetypeTableRecord
  2
DASHED
 70
     0
  3
Dashed __ __ __ __ __ __ __ __ __ __ __ __ __ _
 72
    65
 73
     2
 40
19.05
 49
12.7
 74
     0
 49
-6.349999999999999
 74
     0
  0
LTYPE
  5
EAF
330
5
100
AcDbSymbolTableRecord
100
AcDbLinetypeTableRecord
  2
HIDDEN
 70
     0
  3
Hidden __ __ __ __ __ __ __ __ __ __ __ __ __ _
 72
    65
 73
     2
 40
9.524999999999998
 49
6.349999999999999
 74
     0
 49
-3.174999999999999
 74
     0
  0
ENDTAB
  0
TABLE
  2
LAYER
  5
2
330
0
100
AcDbSymbolTable
 70
    26
  0
LAYER
  5
10
330
2
100
AcDbSymbolTableRecord
100
AcDbLayerTableRecord
  2
0
 70
     0
 62
     7
  6
Continuous
370
    -3
390
F
  0
LAYER
  5
33
330
2
100
AcDbSymbolTableRecord
100
AcDbLayerTableRecord
  2
FRAME 200
 70
     0
 62
     8
  6
Continuous
370
    -3
390
F
  0
LAYER
  5
3C
330
2
100
AcDbSymbolTableRecord
100
AcDbLayerTableRecord
  2
FRAME 070
 70
     0
 62
     5
  6
Continuous
370
    -3
390
F
  0
LAYER
  5
41
330
2
100
AcDbSymbolTableRecord
100
AcDbLayerTableRecord
  2
FRAME 050
 70
     0
 62
     6
  6
Continuous
370
    -3
390
F
  0
LAYER
  5
6D
330
2
100
AcDbSymbolTableRecord
100
AcDbLayerTableRecord
  2
Title Block
 70
     0
 62
     7
  6
Continuous
370
    -3
390
F
  0
LAYER
  5
89
330
2
100
AcDbSymbolTableRecord
100
AcDbLayerTableRecord
  2
FRAME 025
 70
     0
 62
     7
  6
Continuous
370
    -3
390
F
  0
LAYER
  5
3A0
330
2
100
AcDbSymbolTableRecord
100
AcDbLayerTableRecord
  2
Viewport
 70
     0
 62
     7
  6
Continuous
370
    -3
390
F
  0
LAYER
  5
440
330
2
100
AcDbSymbolTableRecord
100
AcDbLayerTableRecord
  2
SCALE
 70
     0
 62
     1
  6
Continuous
370
    15
390
F
  0
LAYER
  5
441
330
2
100
AcDbSymbolTableRecord
100
AcDbLayerTableRecord
  2
SERR-INT
 70
     0
 62
     1
  6
Continuous
370
    15
390
F
  0
LAYER
  5
442
330
2
100
AcDbSymbolTableRecord
100
AcDbLayerTableRecord
  2
SERR-EST
 70
     0
 62
     1
  6
Continuous
370
    15
390
F
  0
LAYER
  5
443
330
2
100
AcDbSymbolTableRecord
100
AcDbLayerTableRecord
  2
ASSI-PIL
 70
     0
 62
     1
  6
Continuous
370
    15
390
F
  0
LAYER
  5
444
330
2
100
AcDbSymbolTableRecord
100
AcDbLayerTableRecord
  2
DEST-LOC
 70
     0
 62
     2
  6
Continuous
370
    15
390
F
  0
LAYER
  5
445
330
2
100
AcDbSymbolTableRecord
100
AcDbLayerTableRecord
  2
QUOTE-ANT
 70
     0
 62
     1
  6
Continuous
370
    15
390
F
  0
LAYER
  5
446
330
2
100
AcDbSymbolTableRecord
100
AcDbLayerTableRecord
  2
SCRITTE-VARIE
 70
     0
 62
     3
  6
Continuous
370
    15
390
F
  0
LAYER
  5
447
330
2
100
AcDbSymbolTableRecord
100
AcDbLayerTableRecord
  2
LINEA-SEZIO
 70
     0
 62
     2
  6
Continuous
370
    15
390
F
  0
LAYER
  5
448
330
2
100
AcDbSymbolTableRecord
100
AcDbLayerTableRecord
  2
MUR-EST
 70
     0
 62
     3
  6
Continuous
370
    40
390
F
  0
LAYER
  5
449
330
2
100
AcDbSymbolTableRecord
100
AcDbLayerTableRecord
  2
VVF-R
 70
     0
 62
     7
  6
Continuous
370
    15
390
F
  0
LAYER
  5
44A
330
2
100
AcDbSymbolTableRecord
100
AcDbLayerTableRecord
  2
IMPIANTO-ELETTRICO
 70
     0
 62
     2
  6
Continuous
370
    -3
390
F
  0
LAYER
  5
44B
330
2
100
AcDbSymbolTableRecord
100
AcDbLayerTableRecord
  2
INTESTAZIONE
 70
     0
 62
     9
  6
Continuous
370
    -3
390
F
  0
LAYER
  5
44C
330
2
100
AcDbSymbolTableRecord
100
AcDbLayerTableRecord
  2
VV-F
 70
     0
 62
     3
  6
Continuous
370
    -3
390
F
  0
LAYER
  5
44D
330
2
100
AcDbSymbolTableRecord
100
AcDbLayerTableRecord
  2
2DMURI
 70
     0
 62
     9
  6
Continuous
370
    -3
390
F
  0
LAYER
  5
44E
330
2
100
AcDbSymbolTableRecord
100
AcDbLayerTableRecord
  2
4620_P2$0$ARREDO-BA
 70
     0
 62
     1
  6
Continuous
370
    -3
390
F
  0
LAYER
  5
44F
330
2
100
AcDbSymbolTableRecord
100
AcDbLayerTableRecord
  2
4620_P3$0$ARREDO-BA
 70
     0
 62
     1
  6
Continuous
370
    -3
390
F
  0
LAYER
  5
E68
330
2
100
AcDbSymbolTableRecord
100
AcDbLayerTableRecord
  2
TT
 70
     0
 62
     1
  6
Continuous
370
    -3
390
F
  0
LAYER
  5
EC0
330
2
100
AcDbSymbolTableRecord
100
AcDbLayerTableRecord
  2
500
 70
     0
 62
     2
  6
Continuous
370
    -3
390
F
  0
LAYER
  5
EC1
330
2
100
AcDbSymbolTableRecord
100
AcDbLayerTableRecord
  2
VISTE
 70
     0
 62
     2
  6
Continuous
370
    30
390
F
  0
ENDTAB
  0
TABLE
  2
STYLE
  5
3
330
0
100
AcDbSymbolTable
 70
     6
  0
STYLE
  5
11
330
3
100
AcDbSymbolTableRecord
100
AcDbTextStyleTableRecord
  2
Standard
 70
     0
 40
0.0
 41
1.0
 50
0.0
 71
     0
 42
2.5
  3
txt
  4

  0
STYLE
  5
5C
330
3
100
AcDbSymbolTableRecord
100
AcDbTextStyleTableRecord
  2
ISO Proportional
 70
     0
 40
0.0
 41
1.0
 50
0.0
 71
     0
 42
2.5
  3
isocp.shx
  4

  0
STYLE
  5
450
330
3
100
AcDbSymbolTableRecord
100
AcDbTextStyleTableRecord
  2
ROMANS
 70
     0
 40
0.0
 41
1.0
 50
0.0
 71
     0
 42
40.0
  3
ROMANS.shx
  4

  0
STYLE
  5
451
330
3
100
AcDbSymbolTableRecord
100
AcDbTextStyleTableRecord
  2
ROMANC
 70
     0
 40
0.0
 41
1.0
 50
0.0
 71
     0
 42
30.0
  3
ROMANC.shx
  4

  0
STYLE
  5
452
330
3
100
AcDbSymbolTableRecord
100
AcDbTextStyleTableRecord
  2
SYMATH
 70
     0
 40
0.0
 41
1.0
 50
0.0
 71
     0
 42
20.0
  3
symath
  4

  0
STYLE
  5
E9D
330
3
100
AcDbSymbolTableRecord
100
AcDbTextStyleTableRecord
  2

 70
     1
 40
0.0
 41
1.0
 50
0.0
 71
     0
 42
2.5
  3
ltypeshp.shx
  4

  0
ENDTAB
  0
TABLE
  2
VIEW
  5
6
330
0
100
AcDbSymbolTable
 70
     0
  0
ENDTAB
  0
TABLE
  2
UCS
  5
7
330
0
100
AcDbSymbolTable
 70
     0
  0
ENDTAB
  0
TABLE
  2
APPID
  5
9
330
0
100
AcDbSymbolTable
 70
     1
  0
APPID
  5
12
330
9
100
AcDbSymbolTableRecord
100
AcDbRegAppTableRecord
  2
ACAD
 70
     0
  0
ENDTAB
  0
TABLE
  2
DIMSTYLE
  5
A
330
0
100
AcDbSymbolTable
 70
     2
100
AcDbDimStyleTable
 71
     0
  0
DIMSTYLE
105
27
330
A
100
AcDbSymbolTableRecord
100
AcDbDimStyleTableRecord
  2
ISO-25
 70
     0
 41
2.5
 42
0.625
 43
3.75
 44
1.25
 73
     0
 74
     0
 77
     1
 78
     8
140
2.5
141
2.5
143
0.03937007874016
147
0.625
171
     3
172
     1
271
     2
272
     2
274
     3
278
    44
283
     0
284
     8
340
11
  0
DIMSTYLE
105
453
330
A
100
AcDbSymbolTableRecord
100
AcDbDimStyleTableRecord
  2
STANDARD
 70
     0
340
11
  0
ENDTAB
  0
TABLE
  2
BLOCK_RECORD
  5
1
330
0
100
AcDbSymbolTable
 70
     9
  0
BLOCK_RECORD
  5
1F
330
1
100
AcDbSymbolTableRecord
100
AcDbBlockTableRecord
  2
*Model_Space
340
22
  0
BLOCK_RECORD
  5
E6C
330
1
100
AcDbSymbolTableRecord
100
AcDbBlockTableRecord
  2
*Paper_Space
340
E6D
  0
BLOCK_RECORD
  5
31
330
1
100
AcDbSymbolTableRecord
100
AcDbBlockTableRecord
  2
ISO A3 title block
340
0
310
2800000020000000200000000100080000000000000400000000000000000000000000000000000000000000000080000080000000808000800000008000800080800000C0C0C000C0DCC000F0CAA6000020400000206000002080000020A0000020C0000020E00000400000004020000040400000406000004080000040A0
310
000040C0000040E00000600000006020000060400000606000006080000060A0000060C0000060E00000800000008020000080400000806000008080000080A0000080C0000080E00000A0000000A0200000A0400000A0600000A0800000A0A00000A0C00000A0E00000C0000000C0200000C0400000C0600000C0800000C0
310
A00000C0C00000C0E00000E0000000E0200000E0400000E0600000E0800000E0A00000E0C00000E0E00040000000400020004000400040006000400080004000A0004000C0004000E00040200000402020004020400040206000402080004020A0004020C0004020E000404000004040200040404000404060004040800040
310
40A0004040C0004040E00040600000406020004060400040606000406080004060A0004060C0004060E00040800000408020004080400040806000408080004080A0004080C0004080E00040A0000040A0200040A0400040A0600040A0800040A0A00040A0C00040A0E00040C0000040C0200040C0400040C0600040C08000
310
40C0A00040C0C00040C0E00040E0000040E0200040E0400040E0600040E0800040E0A00040E0C00040E0E00080000000800020008000400080006000800080008000A0008000C0008000E00080200000802020008020400080206000802080008020A0008020C0008020E00080400000804020008040400080406000804080
310
008040A0008040C0008040E00080600000806020008060400080606000806080008060A0008060C0008060E00080800000808020008080400080806000808080008080A0008080C0008080E00080A0000080A0200080A0400080A0600080A0800080A0A00080A0C00080A0E00080C0000080C0200080C0400080C0600080C0
310
800080C0A00080C0C00080C0E00080E0000080E0200080E0400080E0600080E0800080E0A00080E0C00080E0E000C0000000C0002000C0004000C0006000C0008000C000A000C000C000C000E000C0200000C0202000C0204000C0206000C0208000C020A000C020C000C020E000C0400000C0402000C0404000C0406000C0
310
408000C040A000C040C000C040E000C0600000C0602000C0604000C0606000C0608000C060A000C060C000C060E000C0800000C0802000C0804000C0806000C0808000C080A000C080C000C080E000C0A00000C0A02000C0A04000C0A06000C0A08000C0A0A000C0A0C000C0A0E000C0C00000C0C02000C0C04000C0C06000
310
C0C08000C0C0A000F0FBFF00A4A0A000808080000000FF0000FF000000FFFF00FF000000FF00FF00FFFF0000FFFFFF00FFFFFFFFFFFFFFFFFFFFFFFFFFFFFFFFFFFFFFFFFFFFFFFFFFFFFFFFFFFFFFFFFFFFFFFFFFFFFFFFFFFFFFFFFFFFFFFFFFFFFFFFFFFFFFFFFFFFFFFFFFFFFFFFFFFFFFFFFFFFFFFFFFFFFFFFFFFFFF
310
FFFFFFFFFFFFFFFFFFFFFFFFFFFFFFFFFFFFFFFFFFFFFFFFFFFFFFFFFFFFFFFFFFFFFFFFFFFFFFFFFFFFFFFFFFFFFFFFFFFFFFFFFFFFFFFFFFFFFFFFFFFFFFFFFFFFFFFFFFFFFFFFFFFFFFFFFFFFFFFFFFFFFFFFFFFFFFFFFFFFFFFFFFFFFFFFFFFFFFFFFFFFFFFFFFFFFFFFFFFFFFFFFFFFA4A4FCFDFDFCFDFCFDFDFDFDFD
310
FDFDFDFDFCFDFDFDFDFCFDFDFDFC00A4A4FFFFFFFCFFFFFFFFFFFFFFFFFFFFFFFFFFFDFFFCFFFDFDFFFCFDFDFDFC00FCFFFFFFFFFDFFFFFFFFFFFFFFFFFFFFFFFFFFFFFFFCFCFCFC00FCFC00000000FDFFFFFFFFFDFFFFFFFFFFFFFFFFFFFFFFFFFFFFFFFCFCFCFCFCFCFCFCFCFCFCFDFFFFFFFFFCFFFFFFFFFFFFFFFFFFFF
310
FFFFFFFFFFFFFFFFFFFFFFFFFFFFFFFFFCFFFFFFFFFDFFFFFFFFFFFFFFFFFFFFFFFFFFFFFFFFFFFFFFFFFFFFFFFFFFFFFDFFFFFFFFFDFFFFFFFFFFFFFFFFFFFFFFFFFFFFFFFFFFFFFFFFFFFFFFFFFFFFFDFFFFFFFFFCFFFFFFFFFFFFFFFFFFFFFFFFFFFFFFFFFFFFFFFFFFFFFFFFFFFFFCFFFFFFFFFDFFFFFFFFFFFFFFFFFF
310
FFFFFFFFFFFFFFFFFFFFFFFFFFFFFFFFFFFDFFFFFFFFFDFFFFFFFFFFFFFFFFFFFFFFFFFFFFFFFFFFFFFFFFFFFFFFFFFFFFFCFFFFFFFFFDFFFFFFFFFFFFFFFFFFFFFFFFFFFFFFFFFFFFFFFFFFFFFFFFFFFFFDFFFFFFFFFDFFFFFFFFFFFFFFFFFFFFFFFFFFFFFFFFFFFFFFFFFFFFFFFFFFFFFDFFFFFFFFFCFFFFFFFFFFFFFFFF
310
FFFFFFFFFFFFFFFFFFFFFFFFFFFFFFFFFFFFFCFFFFFFFFFDFFFFFFFFFFFFFFFFFFFFFFFFFFFFFFFFFFFFFFFFFFFFFFFFFFFFFDFFFFFFFFFDFFFFFFFFFFFFFFFFFFFFFFFFFFFFFFFFFFFFFFFFFFFFFFFFFFFFFDFFFFFFFFFCFFFFFFFFFFFFFFFFFFFFFFFFFFFFFFFFFFFFFFFFFFFFFFFFFFFFFCFFFFFFFFFDFFFFFFFFFFFFFF
310
FFFFFFFFFFFFFFFFFFFFFFFFFFFFFFFFFFFFFFFDFFFFFFFFFDFFFFFFFFFFFFFFFFFFFFFFFFFFFFFFFFFFFFFFFFFFFFFFFFFFFFFDFFFFFFFFFCFFFFFFFFFFFFFFFFFFFFFFFFFFFDFFFCFCFCFCFCFCFCFCFCFCFCFCFFFFFFA4A4FCFDFDFCFDFCFDFDFDFDFCFDFCFDFDFC00FDFDFDFCFDFCFCFCFCA4A4FFFFFFFFFFFFFFFFFFFF
310
FFFFFFFFFFFFFFFFFFFFFFFFFFFFFFFFFFFFFFFFFFFFFFFFFFFFFFFFFFFFFFFFFFFFFFFFFFFFFFFFFFFFFFFFFFFFFFFFFFFFFFFFFFFFFFFFFFFFFFFFFFFFFFFFFFFFFFFFFFFFFFFFFFFFFFFFFFFFFFFFFFFFFFFFFFFFFFFFFFFFFFFFFFFFFFFFFFFFFFFFFFFFFFFFFFFFFFFFFFFFFFFFFFFFFFFFFFFFFFFFFFFFFFFFFFFFFF
310
FFFFFFFFFFFFFFFFFFFFFFFFFFFFFFFFFFFFFFFFFFFFFFFFFFFFFFFFFFFFFFFFFFFFFFFFFFFFFFFFFFFFFFFFFFFFFFFFFFFFFFFFFFFFFFFF
1001
ACAD
1000
DesignCenter Data
1002
{
1070
     1
1070
     4
1002
}
  0
BLOCK_RECORD
  5
3EA
330
1
100
AcDbSymbolTableRecord
100
AcDbBlockTableRecord
  2
DEST-LOC
340
0
102
{BLKREFS
331
95F
331
963
331
967
102
}
  0
BLOCK_RECORD
  5
3EF
330
1
100
AcDbSymbolTableRecord
100
AcDbBlockTableRecord
  2
A$C17763048
340
0
102
{BLKREFS
331
409
102
}
  0
BLOCK_RECORD
  5
407
330
1
100
AcDbSymbolTableRecord
100
AcDbBlockTableRecord
  2
A$C2E6E7F1B
340
0
102
{BLKREFS
331
40D
102
}
  0
BLOCK_RECORD
  5
40B
330
1
100
AcDbSymbolTableRecord
100
AcDbBlockTableRecord
  2
A$C41FF31FA
340
0
102
{BLKREFS
331
411
102
}
  0
BLOCK_RECORD
  5
40F
330
1
100
AcDbSymbolTableRecord
100
AcDbBlockTableRecord
  2
A$C100B143C
340
0
102
{BLKREFS
331
96C
102
}
  0
BLOCK_RECORD
  5
413
330
1
100
AcDbSymbolTableRecord
100
AcDbBlockTableRecord
  2
4620_P2$0$LAVABO-1
340
0
102
{BLKREFS
331
9FE
102
}
  0
BLOCK_RECORD
  5
433
330
1
100
AcDbSymbolTableRecord
100
AcDbBlockTableRecord
  2
VCC02
340
0
102
{BLKREFS
331
43D
102
}
  0
BLOCK_RECORD
  5
43B
330
1
100
AcDbSymbolTableRecord
100
AcDbBlockTableRecord
  2
WATER
340
0
102
{BLKREFS
331
9FD
102
}
  0
ENDTAB
  0
ENDSEC
  0
SECTION
  2
BLOCKS
  0
BLOCK
  5
20
330
1F
100
AcDbEntity
  8
0
100
AcDbBlockBegin
  2
*Model_Space
 70
     0
 10
0.0
 20
0.0
 30
0.0
  3
*Model_Space
  1

  0
ENDBLK
  5
21
330
1F
100
AcDbEntity
  8
0
100
AcDbBlockEnd
  0
BLOCK
  5
E6E
330
E6C
100
AcDbEntity
 67
     1
  8
0
100
AcDbBlockBegin
  2
*Paper_Space
 70
     0
 10
0.0
 20
0.0
 30
0.0
  3
*Paper_Space
  1

  0
ENDBLK
  5
E6F
330
E6C
100
AcDbEntity
 67
     1
  8
0
100
AcDbBlockEnd
  0
BLOCK
  5
BD
330
31
100
AcDbEntity
  8
0
100
AcDbBlockBegin
  2
ISO A3 title block
 70
     2
 10
0.0
 20
0.0
 30
0.0
  3
ISO A3 title block
  1

  4
ISO A3 title block and attributes
  0
LINE
  5
2FE
330
31
100
AcDbEntity
  8
FRAME 070
100
AcDbLine
 10
10.0
 20
10.0
 30
0.0
 11
410.0
 21
10.0
 31
0.0
  0
LINE
  5
2FF
330
31
100
AcDbEntity
  8
FRAME 070
100
AcDbLine
 10
410.0
 20
287.0
 30
0.0
 11
10.0
 21
287.0
 31
0.0
  0
LINE
  5
300
330
31
100
AcDbEntity
  8
FRAME 050
100
AcDbLine
 10
160.0
 20
5.0
 30
0.0
 11
260.0
 21
5.0
 31
0.0
  0
LINE
  5
301
330
31
100
AcDbEntity
  8
FRAME 050
100
AcDbLine
 10
207.5
 20
12.5
 30
0.0
 11
212.5
 21
12.5
 31
0.0
  0
LINE
  5
302
330
31
100
AcDbEntity
  8
FRAME 050
100
AcDbLine
 10
212.5
 20
12.5
 30
0.0
 11
210.0
 21
7.5
 31
0.0
  0
LINE
  5
303
330
31
100
AcDbEntity
  8
FRAME 070
100
AcDbLine
 10
10.0
 20
287.0
 30
0.0
 11
10.0
 21
10.0
 31
0.0
  0
LINE
  5
304
330
31
100
AcDbEntity
  8
FRAME 050
100
AcDbLine
 10
12.5
 20
151.0
 30
0.0
 11
12.5
 21
146.0
 31
0.0
  0
LINE
  5
305
330
31
100
AcDbEntity
  8
FRAME 050
100
AcDbLine
 10
7.5
 20
148.5
 30
0.0
 11
12.5
 21
151.0
 31
0.0
  0
LINE
  5
306
330
31
100
AcDbEntity
  8
FRAME 200
100
AcDbLine
 10
0.0
 20
0.0
 30
0.0
 11
0.0
 21
10.0
 31
0.0
  0
LINE
  5
307
330
31
100
AcDbEntity
  8
FRAME 200
100
AcDbLine
 10
0.0
 20
0.0
 30
0.0
 11
10.0
 21
0.0
 31
0.0
  0
TEXT
  5
308
330
31
100
AcDbEntity
  8
FRAME 050
100
AcDbText
 10
6.099999999999999
 20
31.5
 30
0.0
 40
4.0
  1
F
  7
ISO Proportional
 72
     4
 11
7.5
 21
33.5
 31
0.0
100
AcDbText
  0
TEXT
  5
309
330
31
100
AcDbEntity
  8
FRAME 050
100
AcDbText
 10
34.0
 20
5.5
 30
0.0
 40
4.0
  1
1
  7
ISO Proportional
 72
     4
 11
35.0
 21
7.5
 31
0.0
100
AcDbText
  0
LINE
  5
30A
330
31
100
AcDbEntity
  8
FRAME 050
100
AcDbLine
 10
60.0
 20
5.0
 30
0.0
 11
60.0
 21
10.0
 31
0.0
  0
LINE
  5
30B
330
31
100
AcDbEntity
  8
FRAME 050
100
AcDbLine
 10
5.0
 20
148.5
 30
0.0
 11
15.0
 21
148.5
 31
0.0
  0
TEXT
  5
30C
330
31
100
AcDbEntity
  8
FRAME 050
100
AcDbText
 10
6.099999999999999
 20
77.5
 30
0.0
 40
4.0
  1
E
  7
ISO Proportional
 72
     4
 11
7.5
 21
79.5
 31
0.0
100
AcDbText
  0
LINE
  5
30D
330
31
100
AcDbEntity
  8
FRAME 050
100
AcDbLine
 10
10.0
 20
56.5
 30
0.0
 11
5.0
 21
56.5
 31
0.0
  0
TEXT
  5
30E
330
31
100
AcDbEntity
  8
FRAME 050
100
AcDbText
 10
5.786091270347398
 20
123.5
 30
0.0
 40
4.0
  1
D
  7
ISO Proportional
 72
     4
 11
7.5
 21
125.5
 31
0.0
100
AcDbText
  0
LINE
  5
30F
330
31
100
AcDbEntity
  8
FRAME 050
100
AcDbLine
 10
10.0
 20
102.5
 30
0.0
 11
5.0
 21
102.5
 31
0.0
  0
LINE
  5
310
330
31
100
AcDbEntity
  8
FRAME 050
100
AcDbLine
 10
12.5
 20
146.0
 30
0.0
 11
7.5
 21
148.5
 31
0.0
  0
TEXT
  5
311
330
31
100
AcDbEntity
  8
FRAME 050
100
AcDbText
 10
133.5171572875254
 20
5.582842712474614
 30
0.0
 40
4.0
  1
3
  7
ISO Proportional
 72
     4
 11
135.0
 21
7.5
 31
0.0
100
AcDbText
  0
TEXT
  5
312
330
31
100
AcDbEntity
  8
FRAME 050
100
AcDbText
 10
83.53066929133857
 20
5.399606299212598
 30
0.0
 40
4.0
  1
2
  7
ISO Proportional
 72
     4
 11
85.0
 21
7.5
 31
0.0
100
AcDbText
  0
LINE
  5
313
330
31
100
AcDbEntity
  8
FRAME 050
100
AcDbLine
 10
110.0
 20
5.0
 30
0.0
 11
110.0
 21
10.0
 31
0.0
  0
LINE
  5
314
330
31
100
AcDbEntity
  8
FRAME 050
100
AcDbLine
 10
210.0
 20
10.0
 30
0.0
 11
210.0
 21
5.0
 31
0.0
  0
LINE
  5
315
330
31
100
AcDbEntity
  8
FRAME 050
100
AcDbLine
 10
160.0
 20
5.0
 30
0.0
 11
160.0
 21
10.0
 31
0.0
  0
LINE
  5
316
330
31
100
AcDbEntity
  8
FRAME 050
100
AcDbLine
 10
170.0
 20
5.0
 30
0.0
 11
170.0
 21
10.0
 31
0.0
  0
LINE
  5
317
330
31
100
AcDbEntity
  8
FRAME 050
100
AcDbLine
 10
180.0
 20
5.0
 30
0.0
 11
180.0
 21
10.0
 31
0.0
  0
LINE
  5
318
330
31
100
AcDbEntity
  8
FRAME 050
100
AcDbLine
 10
190.0
 20
5.0
 30
0.0
 11
190.0
 21
10.0
 31
0.0
  0
LINE
  5
319
330
31
100
AcDbEntity
  8
FRAME 050
100
AcDbLine
 10
200.0
 20
5.0
 30
0.0
 11
200.0
 21
10.0
 31
0.0
  0
LINE
  5
31A
330
31
100
AcDbEntity
  8
FRAME 050
100
AcDbLine
 10
210.0
 20
7.5
 30
0.0
 11
207.5
 21
12.5
 31
0.0
  0
LINE
  5
31B
330
31
100
AcDbEntity
  8
FRAME 050
100
AcDbLine
 10
210.0
 20
10.0
 30
0.0
 11
210.0
 21
15.0
 31
0.0
  0
TEXT
  5
31C
330
31
100
AcDbEntity
  8
FRAME 050
100
AcDbText
 10
6.193198051533947
 20
169.5
 30
0.0
 40
4.0
  1
C
  7
ISO Proportional
 72
     4
 11
7.5
 21
171.5
 31
0.0
100
AcDbText
  0
LINE
  5
31D
330
31
100
AcDbEntity
  8
FRAME 050
100
AcDbLine
 10
10.0
 20
194.5
 30
0.0
 11
5.0
 21
194.5
 31
0.0
  0
TEXT
  5
31E
330
31
100
AcDbEntity
  8
FRAME 050
100
AcDbText
 10
5.899999999999996
 20
215.5
 30
0.0
 40
4.0
  1
B
  7
ISO Proportional
 72
     4
 11
7.5
 21
217.5
 31
0.0
100
AcDbText
  0
LINE
  5
31F
330
31
100
AcDbEntity
  8
FRAME 050
100
AcDbLine
 10
10.0
 20
240.5
 30
0.0
 11
5.0
 21
240.5
 31
0.0
  0
LINE
  5
320
330
31
100
AcDbEntity
  8
FRAME 200
100
AcDbLine
 10
0.0
 20
297.0
 30
0.0
 11
0.0
 21
287.0
 31
0.0
  0
TEXT
  5
321
330
31
100
AcDbEntity
  8
FRAME 050
100
AcDbText
 10
5.699999999999999
 20
261.5
 30
0.0
 40
4.0
  1
A
  7
ISO Proportional
 72
     4
 11
7.5
 21
263.5
 31
0.0
100
AcDbText
  0
LINE
  5
322
330
31
100
AcDbEntity
  8
FRAME 200
100
AcDbLine
 10
10.0
 20
297.0
 30
0.0
 11
0.0
 21
297.0
 31
0.0
  0
LINE
  5
323
330
31
100
AcDbEntity
  8
FRAME 050
100
AcDbLine
 10
60.0
 20
287.0
 30
0.0
 11
60.0
 21
292.0
 31
0.0
  0
TEXT
  5
324
330
31
100
AcDbEntity
  8
FRAME 050
100
AcDbText
 10
34.0
 20
287.5
 30
0.0
 40
4.0
  1
1
  7
ISO Proportional
 72
     4
 11
35.0
 21
289.5
 31
0.0
100
AcDbText
  0
LINE
  5
325
330
31
100
AcDbEntity
  8
FRAME 050
100
AcDbLine
 10
110.0
 20
287.0
 30
0.0
 11
110.0
 21
292.0
 31
0.0
  0
TEXT
  5
326
330
31
100
AcDbEntity
  8
FRAME 050
100
AcDbText
 10
83.53066929133857
 20
287.3996062992126
 30
0.0
 40
4.0
  1
2
  7
ISO Proportional
 72
     4
 11
85.0
 21
289.5
 31
0.0
100
AcDbText
  0
TEXT
  5
327
330
31
100
AcDbEntity
  8
FRAME 050
100
AcDbText
 10
133.5171572875254
 20
287.5828427124746
 30
0.0
 40
4.0
  1
3
  7
ISO Proportional
 72
     4
 11
135.0
 21
289.5
 31
0.0
100
AcDbText
  0
LINE
  5
328
330
31
100
AcDbEntity
  8
FRAME 050
100
AcDbLine
 10
210.0
 20
282.0
 30
0.0
 11
210.0
 21
292.0
 31
0.0
  0
LINE
  5
329
330
31
100
AcDbEntity
  8
FRAME 050
100
AcDbLine
 10
160.0
 20
287.0
 30
0.0
 11
160.0
 21
292.0
 31
0.0
  0
TEXT
  5
32A
330
31
100
AcDbEntity
  8
FRAME 050
100
AcDbText
 10
183.4
 20
287.5
 30
0.0
 40
4.0
  1
4
  7
ISO Proportional
 72
     4
 11
185.0
 21
289.5
 31
0.0
100
AcDbText
  0
LINE
  5
32B
330
31
100
AcDbEntity
  8
FRAME 070
100
AcDbLine
 10
410.0
 20
10.0
 30
0.0
 11
410.0
 21
287.0
 31
0.0
  0
ATTDEF
  5
32C
330
31
100
AcDbEntity
  8
FRAME 025
100
AcDbText
 10
337.0
 20
31.75
 30
0.0
 40
2.5
  1
XXX
  7
ISO Proportional
 11
337.0
 21
33.0
 31
0.0
100
AcDbAttributeDefinition
  3
File name
  2
FILENAME
 70
     8
 74
     2
  0
TEXT
  5
32D
330
31
100
AcDbEntity
  8
FRAME 025
100
AcDbText
 10
337.0
 20
35.75
 30
0.0
 40
2.5
  1
File name
  7
ISO Proportional
 11
337.0
 21
37.0
 31
0.0
100
AcDbText
 73
     2
  0
LINE
  5
32E
330
31
100
AcDbEntity
  8
FRAME 070
100
AcDbLine
 10
315.0
 20
20.0
 30
0.0
 11
410.0
 21
20.0
 31
0.0
  0
LINE
  5
32F
330
31
100
AcDbEntity
  8
FRAME 070
100
AcDbLine
 10
240.0
 20
30.0
 30
0.0
 11
410.0
 21
30.0
 31
0.0
  0
LINE
  5
330
330
31
100
AcDbEntity
  8
FRAME 070
100
AcDbLine
 10
240.0
 20
40.0
 30
0.0
 11
410.0
 21
40.0
 31
0.0
  0
LINE
  5
331
330
31
100
AcDbEntity
  8
FRAME 070
100
AcDbLine
 10
240.0
 20
46.0
 30
0.0
 11
410.0
 21
46.0
 31
0.0
  0
TEXT
  5
332
330
31
100
AcDbEntity
  8
FRAME 025
100
AcDbText
 10
274.0
 20
41.74999999999999
 30
0.0
 40
2.5
  1
Title/Name, designation, material, dimension etc
  7
ISO Proportional
 11
274.0
 21
43.0
 31
0.0
100
AcDbText
 73
     2
  0
ATTDEF
  5
333
330
31
100
AcDbEntity
  8
FRAME 050
100
AcDbText
 10
343.65
 20
13.5
 30
0.0
 40
3.0
  1
X
  7
ISO Proportional
 72
     4
 11
345.0
 21
15.0
 31
0.0
100
AcDbAttributeDefinition
  3
Drawing number
  2
DRAWING_NUMBER
 70
     8
  0
TEXT
  5
334
330
31
100
AcDbEntity
  8
FRAME 025
100
AcDbText
 10
274.0
 20
35.75
 30
0.0
 40
2.5
  1
Checked by
  7
ISO Proportional
 11
274.0
 21
37.0
 31
0.0
100
AcDbText
 73
     2
  0
ATTDEF
  5
335
330
31
100
AcDbEntity
  8
FRAME 050
100
AcDbText
 10
270.75
 20
17.5
 30
0.0
 40
5.0
  1
XXX
  7
ISO Proportional
 72
     4
 11
277.5
 21
20.0
 31
0.0
100
AcDbAttributeDefinition
  3
Owner
  2
OWNER
 70
     8
  0
ATTDEF
  5
336
330
31
100
AcDbEntity
  8
FRAME 025
100
AcDbText
 10
274.0
 20
31.75
 30
0.0
 40
2.5
  1
XXX
  7
ISO Proportional
 11
274.0
 21
33.0
 31
0.0
100
AcDbAttributeDefinition
  3
Checked by
  2
CHECKED_BY
 70
     8
 74
     2
  0
LINE
  5
337
330
31
100
AcDbEntity
  8
FRAME 050
100
AcDbLine
 10
260.0
 20
5.0
 30
0.0
 11
260.0
 21
10.0
 31
0.0
  0
LINE
  5
338
330
31
100
AcDbEntity
  8
FRAME 050
100
AcDbLine
 10
220.0
 20
5.0
 30
0.0
 11
220.0
 21
10.0
 31
0.0
  0
LINE
  5
339
330
31
100
AcDbEntity
  8
FRAME 050
100
AcDbLine
 10
230.0
 20
5.0
 30
0.0
 11
230.0
 21
10.0
 31
0.0
  0
LINE
  5
33A
330
31
100
AcDbEntity
  8
FRAME 050
100
AcDbLine
 10
240.0
 20
5.0
 30
0.0
 11
240.0
 21
10.0
 31
0.0
  0
LINE
  5
33B
330
31
100
AcDbEntity
  8
FRAME 050
100
AcDbLine
 10
250.0
 20
5.0
 30
0.0
 11
250.0
 21
10.0
 31
0.0
  0
TEXT
  5
33C
330
31
100
AcDbEntity
  8
FRAME 025
100
AcDbText
 10
242.0
 20
41.74999999999999
 30
0.0
 40
2.5
  1
Itemref
  7
ISO Proportional
 11
242.0
 21
43.0
 31
0.0
100
AcDbText
 73
     2
  0
TEXT
  5
33D
330
31
100
AcDbEntity
  8
FRAME 025
100
AcDbText
 10
242.0
 20
35.75
 30
0.0
 40
2.5
  1
Designed by
  7
ISO Proportional
 11
242.0
 21
37.0
 31
0.0
100
AcDbText
 73
     2
  0
ATTDEF
  5
33E
330
31
100
AcDbEntity
  8
FRAME 025
100
AcDbText
 10
242.0
 20
31.75
 30
0.0
 40
2.5
  1
XXX
  7
ISO Proportional
 11
242.0
 21
33.0
 31
0.0
100
AcDbAttributeDefinition
  3
Designed by
  2
DESIGNED_BY
 70
     8
 74
     2
  0
LINE
  5
33F
330
31
100
AcDbEntity
  8
FRAME 070
100
AcDbLine
 10
240.0
 20
10.0
 30
0.0
 11
240.0
 21
40.0
 31
0.0
  0
LINE
  5
340
330
31
100
AcDbEntity
  8
FRAME 070
100
AcDbLine
 10
240.0
 20
40.0
 30
0.0
 11
240.0
 21
46.0
 31
0.0
  0
LINE
  5
341
330
31
100
AcDbEntity
  8
FRAME 070
100
AcDbLine
 10
272.0
 20
30.0
 30
0.0
 11
272.0
 21
40.0
 31
0.0
  0
TEXT
  5
342
330
31
100
AcDbEntity
  8
FRAME 025
100
AcDbText
 10
257.0
 20
41.74999999999999
 30
0.0
 40
2.5
  1
Quantity
  7
ISO Proportional
 11
257.0
 21
43.0
 31
0.0
100
AcDbText
 73
     2
  0
LINE
  5
343
330
31
100
AcDbEntity
  8
FRAME 070
100
AcDbLine
 10
255.0
 20
40.0
 30
0.0
 11
255.0
 21
46.0
 31
0.0
  0
LINE
  5
344
330
31
100
AcDbEntity
  8
FRAME 070
100
AcDbLine
 10
272.0
 20
40.0
 30
0.0
 11
272.0
 21
46.0
 31
0.0
  0
TEXT
  5
345
330
31
100
AcDbEntity
  8
FRAME 050
100
AcDbText
 10
333.6
 20
5.5
 30
0.0
 40
4.0
  1
7
  7
ISO Proportional
 72
     4
 11
335.0
 21
7.5
 31
0.0
100
AcDbText
  0
TEXT
  5
346
330
31
100
AcDbEntity
  8
FRAME 050
100
AcDbText
 10
283.6204724409449
 20
5.410236220472441
 30
0.0
 40
4.0
  1
6
  7
ISO Proportional
 72
     4
 11
285.0
 21
7.5
 31
0.0
100
AcDbText
  0
LINE
  5
347
330
31
100
AcDbEntity
  8
FRAME 050
100
AcDbLine
 10
310.0
 20
5.0
 30
0.0
 11
310.0
 21
10.0
 31
0.0
  0
TEXT
  5
348
330
31
100
AcDbEntity
  8
FRAME 025
100
AcDbText
 10
299.0
 20
35.75
 30
0.0
 40
2.5
  1
Approved by - date
  7
ISO Proportional
 11
299.0
 21
37.0
 31
0.0
100
AcDbText
 73
     2
  0
ATTDEF
  5
349
330
31
100
AcDbEntity
  8
FRAME 025
100
AcDbText
 10
299.0
 20
31.75
 30
0.0
 40
2.5
  1
XXX - 00/00/00
  7
ISO Proportional
 11
299.0
 21
33.0
 31
0.0
100
AcDbAttributeDefinition
  3
Approved by - Date
  2
APPROVED_BY_DATE
 70
     8
 74
     2
  0
LINE
  5
34A
330
31
100
AcDbEntity
  8
FRAME 070
100
AcDbLine
 10
297.0
 20
30.0
 30
0.0
 11
297.0
 21
40.0
 31
0.0
  0
LINE
  5
34B
330
31
100
AcDbEntity
  8
FRAME 070
100
AcDbLine
 10
335.0
 20
30.0
 30
0.0
 11
335.0
 21
40.0
 31
0.0
  0
LINE
  5
34C
330
31
100
AcDbEntity
  8
FRAME 070
100
AcDbLine
 10
315.0
 20
10.0
 30
0.0
 11
315.0
 21
30.0
 31
0.0
  0
TEXT
  5
34D
330
31
100
AcDbEntity
  8
FRAME 050
100
AcDbText
 10
383.6
 20
5.5
 30
0.0
 40
4.0
  1
8
  7
ISO Proportional
 72
     4
 11
385.0
 21
7.5
 31
0.0
100
AcDbText
  0
LINE
  5
34E
330
31
100
AcDbEntity
  8
FRAME 050
100
AcDbLine
 10
360.0
 20
5.0
 30
0.0
 11
360.0
 21
10.0
 31
0.0
  0
TEXT
  5
34F
330
31
100
AcDbEntity
  8
FRAME 025
100
AcDbText
 10
362.0
 20
41.74999999999999
 30
0.0
 40
2.5
  1
Article No./Reference
  7
ISO Proportional
 11
362.0
 21
43.0
 31
0.0
100
AcDbText
 73
     2
  0
LINE
  5
350
330
31
100
AcDbEntity
  8
FRAME 070
100
AcDbLine
 10
360.0
 20
30.0
 30
0.0
 11
360.0
 21
40.0
 31
0.0
  0
ATTDEF
  5
351
330
31
100
AcDbEntity
  8
FRAME 025
100
AcDbText
 10
362.0
 20
31.75
 30
0.0
 40
2.5
  1
00/00/00
  7
ISO Proportional
 11
362.0
 21
33.0
 31
0.0
100
AcDbAttributeDefinition
  3
Date
  2
DATE
 70
     8
 74
     2
  0
ATTDEF
  5
352
330
31
100
AcDbEntity
  8
FRAME 050
100
AcDbText
 10
355.75
 20
22.5
 30
0.0
 40
5.0
  1
XXX
  7
ISO Proportional
 72
     4
 11
362.5
 21
25.0
 31
0.0
100
AcDbAttributeDefinition
  3
Title / Name
  2
TITLE
 70
     8
  0
LINE
  5
353
330
31
100
AcDbEntity
  8
FRAME 070
100
AcDbLine
 10
360.0
 20
40.0
 30
0.0
 11
360.0
 21
46.0
 31
0.0
  0
TEXT
  5
354
330
31
100
AcDbEntity
  8
FRAME 025
100
AcDbText
 10
362.0
 20
35.75
 30
0.0
 40
2.5
  1
Date
  7
ISO Proportional
 11
362.0
 21
37.0
 31
0.0
100
AcDbText
 73
     2
  0
LINE
  5
355
330
31
100
AcDbEntity
  8
FRAME 070
100
AcDbLine
 10
390.0
 20
30.0
 30
0.0
 11
390.0
 21
40.0
 31
0.0
  0
ATTDEF
  5
356
330
31
100
AcDbEntity
  8
FRAME 025
100
AcDbText
 10
392.0
 20
31.75
 30
0.0
 40
2.5
  1
1:1
  7
ISO Proportional
 11
392.0
 21
33.0
 31
0.0
100
AcDbAttributeDefinition
  3
Scale
  2
SCALE
 70
     8
 74
     2
  0
TEXT
  5
357
330
31
100
AcDbEntity
  8
FRAME 025
100
AcDbText
 10
377.0
 20
15.75
 30
0.0
 40
2.5
  1
Edition
  7
ISO Proportional
 11
377.0
 21
17.0
 31
0.0
100
AcDbText
 73
     2
  0
ATTDEF
  5
358
330
31
100
AcDbEntity
  8
FRAME 025
100
AcDbText
 10
377.0
 20
11.75
 30
0.0
 40
2.5
  1
0
  7
ISO Proportional
 11
377.0
 21
13.0
 31
0.0
100
AcDbAttributeDefinition
  3
Edition
  2
EDITION
 70
     8
 74
     2
  0
LINE
  5
359
330
31
100
AcDbEntity
  8
FRAME 070
100
AcDbLine
 10
375.0
 20
10.0
 30
0.0
 11
375.0
 21
20.0
 31
0.0
  0
LINE
  5
35A
330
31
100
AcDbEntity
  8
FRAME 070
100
AcDbLine
 10
390.0
 20
10.0
 30
0.0
 11
390.0
 21
20.0
 31
0.0
  0
TEXT
  5
35B
330
31
100
AcDbEntity
  8
FRAME 025
100
AcDbText
 10
392.0
 20
15.75
 30
0.0
 40
2.5
  1
Sheet
  7
ISO Proportional
 11
392.0
 21
17.0
 31
0.0
100
AcDbText
 73
     2
  0
ATTDEF
  5
35C
330
31
100
AcDbEntity
  8
FRAME 025
100
AcDbText
 10
392.0
 20
11.75
 30
0.0
 40
2.5
  1
1/1
  7
ISO Proportional
 11
392.0
 21
13.0
 31
0.0
100
AcDbAttributeDefinition
  3
Sheet
  2
SHEET
 70
     8
 74
     2
  0
TEXT
  5
35D
330
31
100
AcDbEntity
  8
FRAME 025
100
AcDbText
 10
392.0
 20
35.75
 30
0.0
 40
2.5
  1
Scale
  7
ISO Proportional
 11
392.0
 21
37.0
 31
0.0
100
AcDbText
 73
     2
  0
LINE
  5
35E
330
31
100
AcDbEntity
  8
FRAME 200
100
AcDbLine
 10
420.0
 20
0.0
 30
0.0
 11
420.0
 21
10.0
 31
0.0
  0
LINE
  5
35F
330
31
100
AcDbEntity
  8
FRAME 200
100
AcDbLine
 10
420.0
 20
0.0
 30
0.0
 11
410.0
 21
0.0
 31
0.0
  0
TEXT
  5
360
330
31
100
AcDbEntity
  8
FRAME 050
100
AcDbText
 10
411.1
 20
31.5
 30
0.0
 40
4.0
  1
F
  7
ISO Proportional
 72
     4
 11
412.5
 21
33.5
 31
0.0
100
AcDbText
  0
LINE
  5
361
330
31
100
AcDbEntity
  8
FRAME 050
100
AcDbLine
 10
405.0
 20
148.5
 30
0.0
 11
415.0
 21
148.5
 31
0.0
  0
TEXT
  5
362
330
31
100
AcDbEntity
  8
FRAME 050
100
AcDbText
 10
411.1
 20
77.5
 30
0.0
 40
4.0
  1
E
  7
ISO Proportional
 72
     4
 11
412.5
 21
79.5
 31
0.0
100
AcDbText
  0
LINE
  5
363
330
31
100
AcDbEntity
  8
FRAME 050
100
AcDbLine
 10
415.0
 20
56.5
 30
0.0
 11
410.0
 21
56.5
 31
0.0
  0
TEXT
  5
364
330
31
100
AcDbEntity
  8
FRAME 050
100
AcDbText
 10
410.7860912703474
 20
123.5
 30
0.0
 40
4.0
  1
D
  7
ISO Proportional
 72
     4
 11
412.5
 21
125.5
 31
0.0
100
AcDbText
  0
LINE
  5
365
330
31
100
AcDbEntity
  8
FRAME 050
100
AcDbLine
 10
415.0
 20
102.5
 30
0.0
 11
410.0
 21
102.5
 31
0.0
  0
LINE
  5
366
330
31
100
AcDbEntity
  8
FRAME 070
100
AcDbLine
 10
240.0
 20
281.0
 30
0.0
 11
410.0
 21
281.0
 31
0.0
  0
LINE
  5
367
330
31
100
AcDbEntity
  8
FRAME 050
100
AcDbLine
 10
260.0
 20
287.0
 30
0.0
 11
260.0
 21
292.0
 31
0.0
  0
TEXT
  5
368
330
31
100
AcDbEntity
  8
FRAME 050
100
AcDbText
 10
233.5171572875254
 20
287.5828427124746
 30
0.0
 40
4.0
  1
5
  7
ISO Proportional
 72
     4
 11
235.0
 21
289.5
 31
0.0
100
AcDbText
  0
TEXT
  5
369
330
31
100
AcDbEntity
  8
FRAME 025
100
AcDbText
 10
242.0
 20
282.75
 30
0.0
 40
2.5
  1
RevNo
  7
ISO Proportional
 11
242.0
 21
284.0
 31
0.0
100
AcDbText
 73
     2
  0
LINE
  5
36A
330
31
100
AcDbEntity
  8
FRAME 070
100
AcDbLine
 10
240.0
 20
281.0
 30
0.0
 11
240.0
 21
287.0
 31
0.0
  0
TEXT
  5
36B
330
31
100
AcDbEntity
  8
FRAME 025
100
AcDbText
 10
254.0
 20
282.75
 30
0.0
 40
2.5
  1
Revision note
  7
ISO Proportional
 11
254.0
 21
284.0
 31
0.0
100
AcDbText
 73
     2
  0
LINE
  5
36C
330
31
100
AcDbEntity
  8
FRAME 070
100
AcDbLine
 10
252.0
 20
281.0
 30
0.0
 11
252.0
 21
287.0
 31
0.0
  0
LINE
  5
36D
330
31
100
AcDbEntity
  8
FRAME 050
100
AcDbLine
 10
310.0
 20
287.0
 30
0.0
 11
310.0
 21
292.0
 31
0.0
  0
TEXT
  5
36E
330
31
100
AcDbEntity
  8
FRAME 050
100
AcDbText
 10
283.6204724409449
 20
287.4102362204724
 30
0.0
 40
4.0
  1
6
  7
ISO Proportional
 72
     4
 11
285.0
 21
289.5
 31
0.0
100
AcDbText
  0
TEXT
  5
36F
330
31
100
AcDbEntity
  8
FRAME 050
100
AcDbText
 10
333.6
 20
287.5
 30
0.0
 40
4.0
  1
7
  7
ISO Proportional
 72
     4
 11
335.0
 21
289.5
 31
0.0
100
AcDbText
  0
TEXT
  5
370
330
31
100
AcDbEntity
  8
FRAME 050
100
AcDbText
 10
411.1931980515339
 20
169.5
 30
0.0
 40
4.0
  1
C
  7
ISO Proportional
 72
     4
 11
412.5
 21
171.5
 31
0.0
100
AcDbText
  0
LINE
  5
371
330
31
100
AcDbEntity
  8
FRAME 050
100
AcDbLine
 10
415.0
 20
194.5
 30
0.0
 11
410.0
 21
194.5
 31
0.0
  0
TEXT
  5
372
330
31
100
AcDbEntity
  8
FRAME 050
100
AcDbText
 10
410.8999999999999
 20
215.5
 30
0.0
 40
4.0
  1
B
  7
ISO Proportional
 72
     4
 11
412.5
 21
217.5
 31
0.0
100
AcDbText
  0
LINE
  5
373
330
31
100
AcDbEntity
  8
FRAME 050
100
AcDbLine
 10
415.0
 20
240.5
 30
0.0
 11
410.0
 21
240.5
 31
0.0
  0
TEXT
  5
374
330
31
100
AcDbEntity
  8
FRAME 025
100
AcDbText
 10
397.0829939185055
 20
282.75
 30
0.0
 40
2.5
  1
Checked
  7
ISO Proportional
 11
397.0829939185055
 21
284.0
 31
0.0
100
AcDbText
 73
     2
  0
LINE
  5
375
330
31
100
AcDbEntity
  8
FRAME 050
100
AcDbLine
 10
360.0
 20
287.0
 30
0.0
 11
360.0
 21
292.0
 31
0.0
  0
TEXT
  5
376
330
31
100
AcDbEntity
  8
FRAME 050
100
AcDbText
 10
383.6
 20
287.5
 30
0.0
 40
4.0
  1
8
  7
ISO Proportional
 72
     4
 11
385.0
 21
289.5
 31
0.0
100
AcDbText
  0
TEXT
  5
377
330
31
100
AcDbEntity
  8
FRAME 025
100
AcDbText
 10
363.0
 20
282.75
 30
0.0
 40
2.5
  1
Date
  7
ISO Proportional
 11
363.0
 21
284.0
 31
0.0
100
AcDbText
 73
     2
  0
LINE
  5
378
330
31
100
AcDbEntity
  8
FRAME 070
100
AcDbLine
 10
361.0
 20
281.0
 30
0.0
 11
361.0
 21
287.0
 31
0.0
  0
TEXT
  5
379
330
31
100
AcDbEntity
  8
FRAME 025
100
AcDbText
 10
381.3609979728353
 20
282.75
 30
0.0
 40
2.5
  1
Signature
  7
ISO Proportional
 11
381.3609979728353
 21
284.0
 31
0.0
100
AcDbText
 73
     2
  0
LINE
  5
37A
330
31
100
AcDbEntity
  8
FRAME 070
100
AcDbLine
 10
381.0
 20
281.0
 30
0.0
 11
381.0
 21
287.0
 31
0.0
  0
LINE
  5
37B
330
31
100
AcDbEntity
  8
FRAME 070
100
AcDbLine
 10
396.0
 20
281.0
 30
0.0
 11
396.0
 21
287.0
 31
0.0
  0
LINE
  5
37C
330
31
100
AcDbEntity
  8
FRAME 200
100
AcDbLine
 10
420.0
 20
287.0
 30
0.0
 11
420.0
 21
297.0
 31
0.0
  0
TEXT
  5
37D
330
31
100
AcDbEntity
  8
FRAME 050
100
AcDbText
 10
410.7
 20
261.5
 30
0.0
 40
4.0
  1
A
  7
ISO Proportional
 72
     4
 11
412.5
 21
263.5
 31
0.0
100
AcDbText
  0
LINE
  5
37E
330
31
100
AcDbEntity
  8
FRAME 200
100
AcDbLine
 10
420.0
 20
297.0
 30
0.0
 11
410.0
 21
297.0
 31
0.0
  0
ENDBLK
  5
BE
330
31
100
AcDbEntity
  8
0
100
AcDbBlockEnd
  0
BLOCK
  5
3EB
330
3EA
100
AcDbEntity
  8
0
100
AcDbBlockBegin
  2
DEST-LOC
 70
     2
 10
0.0
 20
0.0
 30
0.0
  3
DEST-LOC
  1

  0
ATTDEF
  5
3EC
330
3EA
100
AcDbEntity
  8
0
100
AcDbText
 10
0.9958087850024114
 20
0.1508517374400071
 30
0.0
 40
1.0
  1
CAMERA
  7
ROMANS
 72
     4
 11
3.92438021357384
 21
0.6508517374400072
 31
0.0
100
AcDbAttributeDefinition
  3
DESTINAZIONE LOCALE
  2
DEST-LOC
 70
     0
  0
ATTDEF
  5
3ED
330
3EA
100
AcDbEntity
  8
0
100
AcDbText
 10
3.92438021357384
 20
-0.7720856503469804
 30
0.0
 40
1.0
  1

  7
ROMANS
 72
     4
 11
3.92438021357384
 21
-0.7720856503469804
 31
0.0
100
AcDbAttributeDefinition
  3
DESTINAZIONE LOCALE
  2
DEST-LOC
 70
     0
  0
ENDBLK
  5
3EE
330
3EA
100
AcDbEntity
  8
0
100
AcDbBlockEnd
  0
BLOCK
  5
3F0
330
3EF
100
AcDbEntity
  8
0
100
AcDbBlockBegin
  2
A$C17763048
 70
     0
 10
0.0
 20
0.0
 30
0.0
  3
A$C17763048
  1

  0
SOLID
  5
3F1
330
3EF
100
AcDbEntity
  8
2DMURI
100
AcDbTrace
 10
5.60957918836101
 20
5.467515743061085
 30
0.0
 11
5.101995967588948
 21
4.959932522289477
 31
0.0
 12
8.664765539846428
 22
4.95993252228925
 32
0.0
 13
8.664765539846428
 23
4.95993252228925
 33
0.0
  0
LINE
  5
3F2
330
3EF
100
AcDbEntity
  8
2DMURI
100
AcDbLine
 10
8.664765539846428
 20
4.95993252228925
 30
0.0
 11
5.609579188360783
 21
4.452349301517642
 31
0.0
  0
LINE
  5
3F3
330
3EF
100
AcDbEntity
  8
2DMURI
100
AcDbLine
 10
8.664765539846428
 20
4.95993252228925
 30
0.0
 11
5.609579188360783
 21
5.467515743061085
 31
0.0
  0
LINE
  5
3F4
330
3EF
100
AcDbEntity
  8
2DMURI
100
AcDbLine
 10
8.664765539846428
 20
4.95993252228925
 30
0.0
 11
1.539226395331695
 21
4.95993252228925
 31
0.0
  0
CIRCLE
  5
3F5
330
3EF
100
AcDbEntity
  8
2DMURI
100
AcDbCircle
 10
5.101995967588948
 20
4.959932522289477
 30
0.0
 40
3.56276957225742
  0
TEXT
  5
3F6
330
3EF
100
AcDbEntity
  8
INTESTAZIONE
 62
     4
100
AcDbText
 10
4.466421604715776
 20
9.036434716691246
 30
0.0
 40
1.140479999999999
  1
N
  7
ROMANC
100
AcDbText
  0
TEXT
  5
3F7
330
3EF
100
AcDbEntity
  8
INTESTAZIONE
 62
     4
100
AcDbText
 10
-0.0543078658575382
 20
4.354344868903922
 30
0.0
 40
1.140479999999999
  1
W
  7
ROMANC
100
AcDbText
  0
LINE
  5
3F8
330
3EF
100
AcDbEntity
  8
2DMURI
100
AcDbLine
 10
5.101995967588948
 20
8.52270209454673
 30
0.0
 11
5.609579188360783
 21
5.467515743061085
 31
0.0
  0
LINE
  5
3F9
330
3EF
100
AcDbEntity
  8
2DMURI
100
AcDbLine
 10
5.609579188360783
 20
5.467515743061085
 30
0.0
 11
4.59441274681734
 21
4.452349301517642
 31
0.0
  0
LINE
  5
3FA
330
3EF
100
AcDbEntity
  8
2DMURI
100
AcDbLine
 10
4.59441274681734
 20
5.467515743061085
 30
0.0
 11
5.609579188360783
 21
4.452349301517642
 31
0.0
  0
SOLID
  5
3FB
330
3EF
100
AcDbEntity
  8
2DMURI
100
AcDbTrace
 10
5.101995967588948
 20
8.52270209454673
 30
0.0
 11
4.59441274681734
 21
5.467515743061198
 31
0.0
 12
5.101995967588948
 22
4.959932522289477
 32
0.0
 13
5.101995967588948
 23
4.959932522289477
 33
0.0
  0
LINE
  5
3FC
330
3EF
100
AcDbEntity
  8
2DMURI
100
AcDbLine
 10
5.101995967588948
 20
8.52270209454673
 30
0.0
 11
4.59441274681734
 21
5.467515743061085
 31
0.0
  0
TEXT
  5
3FD
330
3EF
100
AcDbEntity
  8
INTESTAZIONE
 62
     4
100
AcDbText
 10
4.466421604715776
 20
0.0000002371240271
 30
0.0
 40
1.140479999999999
  1
S
  7
ROMANC
100
AcDbText
  0
LINE
  5
3FE
330
3EF
100
AcDbEntity
  8
2DMURI
100
AcDbLine
 10
5.101995967589175
 20
8.522702094546616
 30
0.0
 11
5.101995967588948
 21
1.397162950031997
 31
0.0
  0
SOLID
  5
3FF
330
3EF
100
AcDbEntity
  8
2DMURI
100
AcDbTrace
 10
5.101995967588948
 20
4.959932522289477
 30
0.0
 11
5.101995967588948
 21
1.39716295003177
 31
0.0
 12
5.60957918836101
 22
4.452349301517642
 32
0.0
 13
5.60957918836101
 23
4.452349301517642
 33
0.0
  0
LINE
  5
400
330
3EF
100
AcDbEntity
  8
2DMURI
100
AcDbLine
 10
5.101995967588948
 20
1.39716295003177
 30
0.0
 11
5.609579188360783
 21
4.452349301517642
 31
0.0
  0
LINE
  5
401
330
3EF
100
AcDbEntity
  8
2DMURI
100
AcDbLine
 10
5.101995967588948
 20
1.39716295003177
 30
0.0
 11
4.59441274681734
 21
4.452349301517642
 31
0.0
  0
SOLID
  5
402
330
3EF
100
AcDbEntity
  8
2DMURI
100
AcDbTrace
 10
1.539226395331695
 20
4.95993252228925
 30
0.0
 11
5.101995967588948
 21
4.959932522289477
 31
0.0
 12
4.59441274681734
 22
4.452349301517642
 32
0.0
 13
4.59441274681734
 23
4.452349301517642
 33
0.0
  0
LINE
  5
403
330
3EF
100
AcDbEntity
  8
2DMURI
100
AcDbLine
 10
1.539226395331581
 20
4.95993252228925
 30
0.0
 11
4.59441274681734
 21
4.452349301517642
 31
0.0
  0
LINE
  5
404
330
3EF
100
AcDbEntity
  8
2DMURI
100
AcDbLine
 10
1.539226395331581
 20
4.95993252228925
 30
0.0
 11
4.59441274681734
 21
5.467515743061085
 31
0.0
  0
TEXT
  5
405
330
3EF
100
AcDbEntity
  8
INTESTAZIONE
 62
     4
100
AcDbText
 10
8.963729399537044
 20
4.354344868903922
 30
0.0
 40
1.140479999999999
  1
E
  7
ROMANC
100
AcDbText
  0
ENDBLK
  5
406
330
3EF
100
AcDbEntity
  8
0
100
AcDbBlockEnd
  0
BLOCK
  5
408
330
407
100
AcDbEntity
  8
0
 48
3.0
100
AcDbBlockBegin
  2
A$C2E6E7F1B
 70
     0
 10
0.0
 20
0.0
 30
0.0
  3
A$C2E6E7F1B
  1

  0
INSERT
  5
409
330
407
100
AcDbEntity
  8
IMPIANTO-ELETTRICO
  6
Continuous
100
AcDbBlockReference
  2
A$C17763048
 10
3.295675189257508
 20
-2.776562177830783
 30
0.0
 50
36.85353549827385
  0
ENDBLK
  5
40A
330
407
100
AcDbEntity
  8
0
 48
3.0
100
AcDbBlockEnd
  0
BLOCK
  5
40C
330
40B
100
AcDbEntity
  8
0
 62
     2
100
AcDbBlockBegin
  2
A$C41FF31FA
 70
     0
 10
0.0
 20
0.0
 30
0.0
  3
A$C41FF31FA
  1

  0
INSERT
  5
40D
330
40B
100
AcDbEntity
  8
VV-F
  6
Continuous
 48
3.0
100
AcDbBlockReference
  2
A$C2E6E7F1B
 10
-0.0000550153636141
 20
0.0000199445785256
 30
0.0
  0
ENDBLK
  5
40E
330
40B
100
AcDbEntity
  8
0
 62
     2
100
AcDbBlockEnd
  0
BLOCK
  5
410
330
40F
100
AcDbEntity
  8
0
100
AcDbBlockBegin
  2
A$C100B143C
 70
     0
 10
0.0
 20
0.0
 30
0.0
  3
A$C100B143C
  1

  0
INSERT
  5
411
330
40F
100
AcDbEntity
  8
0
 62
     2
100
AcDbBlockReference
  2
A$C41FF31FA
 10
-24.3660406078161
 20
105.2953549630419
 30
0.0
 41
25.0
 42
25.0
 43
25.0
 50
323.0194881629344
  0
ENDBLK
  5
412
330
40F
100
AcDbEntity
  8
0
100
AcDbBlockEnd
  0
BLOCK
  5
414
330
413
100
AcDbEntity
  8
0
100
AcDbBlockBegin
  2
4620_P2$0$LAVABO-1
 70
     0
 10
0.0
 20
0.0
 30
0.0
  3
4620_P2$0$LAVABO-1
  1

  0
LINE
  5
415
330
413
100
AcDbEntity
  8
0
 62
     1
100
AcDbLine
 10
27.59999999998399
 20
-12.74659880594299
 30
0.0
 11
26.3706575931792
 21
-37.98914836581389
 31
0.0
  0
LINE
  5
416
330
413
100
AcDbEntity
  8
0
 62
     1
100
AcDbLine
 10
18.38012755539239
 20
-45.600000000004
 30
0.0
 11
-18.39397517680481
 21
-45.600000000004
 31
0.0
  0
LINE
  5
417
330
413
100
AcDbEntity
  8
0
 62
     1
100
AcDbLine
 10
-26.38471715479682
 20
-37.9847746769974
 30
0.0
 11
-27.59999999998399
 21
-12.74659880594299
 31
0.0
  0
CIRCLE
  5
418
330
413
100
AcDbEntity
  8
0
 62
     1
100
AcDbCircle
 10
0.0
 20
-15.600000000004
 30
0.0
 40
3.599999999999999
  0
LINE
  5
419
330
413
100
AcDbEntity
  8
0
 62
     1
100
AcDbLine
 10
-19.51646738471026
 20
-8.746598805946632
 30
0.0
 11
19.51544095743884
 21
-8.746598805946632
 31
0.0
  0
ARC
  5
41A
330
413
100
AcDbEntity
  8
0
 62
     1
100
AcDbCircle
 10
-23.60000000000582
 20
-12.74659880594299
 30
0.0
 40
4.0
100
AcDbArc
 50
89.99999999999998
 51
180.0000000000002
  0
ARC
  5
41B
330
413
100
AcDbEntity
  8
0
 62
     1
100
AcDbCircle
 10
23.60000000000582
 20
-12.74659880594299
 30
0.0
 40
4.0
100
AcDbArc
 50
0.0000000000001908
 51
89.99999999999992
  0
ARC
  5
41C
330
413
100
AcDbEntity
  8
0
 62
     1
100
AcDbCircle
 10
-18.39397573436144
 20
-37.60000000000218
 30
0.0
 40
8.0
100
AcDbArc
 50
182.7568092197505
 51
270.0000039931606
  0
ARC
  5
41D
330
413
100
AcDbEntity
  8
0
 62
     1
100
AcDbCircle
 10
18.38012797685223
 20
-37.60000000000218
 30
0.0
 40
8.0
100
AcDbArc
 50
269.9999969814543
 51
357.2118298324
  0
LINE
  5
41E
330
413
100
AcDbEntity
  8
0
 62
     1
100
AcDbLine
 10
-23.99027552080952
 20
-37.86934227389793
 30
0.0
 11
-25.1099863789932
 21
-14.61594107983728
 31
0.0
  0
LINE
  5
41F
330
413
100
AcDbEntity
  8
0
 62
     1
100
AcDbLine
 10
25.10881168887863
 20
-14.61900266201155
 30
0.0
 11
23.97634319069766
 21
-37.8724038560722
 31
0.0
  0
LINE
  5
420
330
413
100
AcDbEntity
  8
0
 62
     1
100
AcDbLine
 10
18.38297245925787
 20
-43.19999999999708
 30
0.0
 11
-18.39675652652658
 21
-43.19999999999708
 31
0.0
  0
ARC
  5
421
330
413
100
AcDbEntity
  8
0
 62
     1
100
AcDbCircle
 10
-18.39675652652658
 20
-37.60000000000218
 30
0.0
 40
5.6
100
AcDbArc
 50
182.7568092197504
 51
270.0000000000001
  0
ARC
  5
422
330
413
100
AcDbEntity
  8
0
 62
     1
100
AcDbCircle
 10
18.38297245925787
 20
-37.60000000000218
 30
0.0
 40
5.6
100
AcDbArc
 50
270.0
 51
357.2118298324005
  0
CIRCLE
  5
423
330
413
100
AcDbEntity
  8
0
 62
     1
100
AcDbCircle
 10
0.0
 20
-4.800000000004729
 30
0.0
 40
1.4
  0
CIRCLE
  5
424
330
413
100
AcDbEntity
  8
0
 62
     1
100
AcDbCircle
 10
7.999999999992724
 20
-4.800000000004729
 30
0.0
 40
1.199999999999999
  0
CIRCLE
  5
425
330
413
100
AcDbEntity
  8
0
 62
     1
100
AcDbCircle
 10
-7.999999999992724
 20
-4.800000000004729
 30
0.0
 40
1.199999999999999
  0
CIRCLE
  5
426
330
413
100
AcDbEntity
  8
0
 62
     1
100
AcDbCircle
 10
0.0
 20
-15.600000000004
 30
0.0
 40
2.408408220001376
  0
ARC
  5
427
330
413
100
AcDbEntity
  8
0
 62
     1
100
AcDbCircle
 10
-19.51646738471026
 20
-14.34659880594154
 30
0.0
 40
5.6
100
AcDbArc
 50
89.99999999999989
 51
182.7568092197504
  0
ARC
  5
428
330
413
100
AcDbEntity
  8
0
 62
     1
100
AcDbCircle
 10
19.51544095743884
 20
-14.34659880594154
 30
0.0
 40
5.6
100
AcDbArc
 50
357.2118298324002
 51
89.99999999999992
  0
LINE
  5
429
330
413
100
AcDbEntity
  8
0
 62
     1
100
AcDbLine
 10
-23.60000000000582
 20
-8.746598805946632
 30
0.0
 11
-19.51646738471026
 21
-8.746598805946632
 31
0.0
  0
LINE
  5
42A
330
413
100
AcDbEntity
  8
0
 62
     1
100
AcDbLine
 10
23.60000000000582
 20
-8.746598805946632
 30
0.0
 11
19.51544095743884
 21
-8.746598805946632
 31
0.0
  0
LINE
  5
42B
330
413
100
AcDbEntity
  8
0
 62
     1
100
AcDbLine
 10
-27.59999999998399
 20
-12.74659880594299
 30
0.0
 11
-27.59999999998399
 21
-1.599999999998544
 31
0.0
  0
ARC
  5
42C
330
413
100
AcDbEntity
  8
0
 62
     1
100
AcDbCircle
 10
-25.99999999998545
 20
-1.599999999998544
 30
0.0
 40
1.6
100
AcDbArc
 50
90.00000000000005
 51
180.0
  0
LINE
  5
42D
330
413
100
AcDbEntity
  8
0
 62
     1
100
AcDbLine
 10
-25.99999999998545
 20
0.0
 30
0.0
 11
25.99999999998545
 21
0.0
 31
0.0
  0
LINE
  5
42E
330
413
100
AcDbEntity
  8
0
 62
     1
100
AcDbLine
 10
27.59999999998399
 20
-12.74659880594299
 30
0.0
 11
27.59999999998399
 21
-1.599999999998544
 31
0.0
  0
ARC
  5
42F
330
413
100
AcDbEntity
  8
0
 62
     1
100
AcDbCircle
 10
25.99999999998545
 20
-1.599999999998544
 30
0.0
 40
1.6
100
AcDbArc
 50
0.0000000000000013
 51
89.99999999999998
  0
LINE
  5
430
330
413
100
AcDbEntity
  8
0
 62
     1
100
AcDbLine
 10
-7.200000000011641
 20
-15.600000000004
 30
0.0
 11
7.200000000011641
 21
-15.600000000004
 31
0.0
  0
LINE
  5
431
330
413
100
AcDbEntity
  8
0
 62
     1
100
AcDbLine
 10
0.0
 20
-22.80000000000655
 30
0.0
 11
0.0
 21
-8.400000000001455
 31
0.0
  0
ENDBLK
  5
432
330
413
100
AcDbEntity
  8
0
100
AcDbBlockEnd
  0
BLOCK
  5
434
330
433
100
AcDbEntity
  8
0
100
AcDbBlockBegin
  2
VCC02
 70
     0
 10
0.0
 20
0.0
 30
0.0
  3
VCC02
  1

  0
LINE
  5
435
330
433
100
AcDbEntity
  8
0
100
AcDbLine
 10
1.649999999999999
 20
1.725
 30
0.0
 11
1.649999999999999
 21
-1.725
 31
0.0
  0
LWPOLYLINE
  5
436
330
433
100
AcDbEntity
  8
0
100
AcDbPolyline
 90
       14
 70
     1
 43
0.0
 10
5.849999999999999
 20
1.725
 42
-0.4142140000000001
 10
6.65
 20
0.925
 10
6.65
 20
-0.925
 42
-0.4142140000000001
 10
5.849999999999999
 20
-1.725
 10
1.649999999999999
 20
-1.725
 10
1.649999999999999
 20
-1.925
 42
-0.4142140000000001
 10
1.35
 20
-2.225
 10
0.3
 20
-2.225
 42
-0.4142140000000001
 10
0.0
 20
-1.925
 10
0.0
 20
1.925
 42
-0.4142140000000001
 10
0.3
 20
2.225
 10
1.35
 20
2.225
 42
-0.4142140000000001
 10
1.649999999999999
 20
1.925
 10
1.649999999999999
 20
1.725
  0
LWPOLYLINE
  5
437
330
433
100
AcDbEntity
  8
0
100
AcDbPolyline
 90
        8
 70
     1
 43
0.0
 10
2.75
 20
-0.925
 42
0.4142140000000001
 10
3.049999999999999
 20
-1.225
 10
5.849999999999999
 20
-1.225
 42
0.4142140000000001
 10
6.15
 20
-0.925
 10
6.15
 20
0.925
 42
0.4142140000000001
 10
5.849999999999999
 20
1.225
 10
3.049999999999999
 20
1.225
 42
0.4142140000000001
 10
2.75
 20
0.925
  0
LWPOLYLINE
  5
438
330
433
100
AcDbEntity
  8
0
100
AcDbPolyline
 90
       11
 70
     1
 43
0.0
 10
3.95
 20
-0.825
 10
3.35
 20
-0.825
 10
3.35
 20
0.825
 10
3.95
 20
0.825
 10
4.006880999999999
 20
0.792334
 42
-0.072892
 10
4.090994
 20
0.583363
 42
-0.034355
 10
4.132433999999999
 20
0.339706
 10
4.149396
 20
0.0
 10
4.132433999999999
 20
-0.339706
 42
-0.034355
 10
4.090994
 20
-0.583363
 42
-0.072892
 10
4.006880999999999
 20
-0.792334
  0
LWPOLYLINE
  5
439
330
433
100
AcDbEntity
  8
0
100
AcDbPolyline
 90
        4
 70
     0
 43
0.0
 10
2.549999999999999
 20
1.725
 42
0.4142140000000001
 10
2.25
 20
1.425
 10
2.25
 20
-1.425
 42
0.4142140000000001
 10
2.549999999999999
 20
-1.725
  0
ENDBLK
  5
43A
330
433
100
AcDbEntity
  8
0
100
AcDbBlockEnd
  0
BLOCK
  5
43C
330
43B
100
AcDbEntity
  8
0
100
AcDbBlockBegin
  2
WATER
 70
     0
 10
0.0
 20
0.0
 30
0.0
  3
WATER
  1

  0
INSERT
  5
43D
330
43B
100
AcDbEntity
  8
0
100
AcDbBlockReference
  2
VCC02
 10
0.0
 20
0.0
 30
0.0
 41
100.0
 42
100.0
 43
100.0
 50
270.0
  0
ENDBLK
  5
43E
330
43B
100
AcDbEntity
  8
0
100
AcDbBlockEnd
  0
ENDSEC
  0
SECTION
  2
ENTITIES
  0
TEXT
  5
95E
330
1F
100
AcDbEntity
  8
QUOTE-ANT
100
AcDbText
 10
2293.731345154482
 20
3466.123995245226
 30
0.0
 40
30.0
  1
+480
  7
ROMANS
100
AcDbText
  0
INSERT
  5
95F
330
1F
100
AcDbEntity
  8
DEST-LOC
100
AcDbBlockReference
 66
     1
  2
DEST-LOC
 10
2917.68110188512
 20
2889.538057585797
 30
0.0
 41
20.0
 42
20.0
 43
20.0
  0
ATTRIB
  5
960
330
95F
100
AcDbEntity
  8
0
100
AcDbText
 10
2942.597277585168
 20
2887.555092334597
 30
0.0
 40
30.0
  1
AULA
  7
ROMANS
 72
     4
 11
2996.168706156597
 21
2902.555092334597
 31
0.0
100
AcDbAttribute
  2
DEST-LOC
 70
     0
  0
ATTRIB
  5
961
330
95F
100
AcDbEntity
  8
0
100
AcDbText
 10
2996.168706156597
 20
2874.096344578857
 30
0.0
 40
20.0
  1

  7
ROMANS
 72
     4
 11
2996.168706156597
 21
2874.096344578857
 31
0.0
100
AcDbAttribute
  2
DEST-LOC
 70
     0
  0
SEQEND
  5
962
330
95F
100
AcDbEntity
  8
DEST-LOC
  0
INSERT
  5
963
330
1F
100
AcDbEntity
  8
DEST-LOC
100
AcDbBlockReference
 66
     1
  2
DEST-LOC
 10
3301.819007571835
 20
1385.704743560444
 30
0.0
 41
20.0
 42
20.0
 43
20.0
  0
ATTRIB
  5
964
330
963
100
AcDbEntity
  8
0
100
AcDbText
 10
3161.020897557598
 20
1383.721778309244
 30
0.0
 40
30.0
  1
ALLOGGIO CUSTODE
  7
ROMANS
 72
     4
 11
3380.306611843312
 21
1398.721778309244
 31
0.0
100
AcDbAttribute
  2
DEST-LOC
 70
     0
  0
ATTRIB
  5
965
330
963
100
AcDbEntity
  8
0
100
AcDbText
 10
3380.306611843312
 20
1370.263030553504
 30
0.0
 40
20.0
  1

  7
ROMANS
 72
     4
 11
3380.306611843312
 21
1370.263030553504
 31
0.0
100
AcDbAttribute
  2
DEST-LOC
 70
     0
  0
SEQEND
  5
966
330
963
100
AcDbEntity
  8
DEST-LOC
  0
INSERT
  5
967
330
1F
100
AcDbEntity
  8
DEST-LOC
100
AcDbBlockReference
 66
     1
  2
DEST-LOC
 10
2044.398964724275
 20
1422.027065361017
 30
0.0
 41
20.0
 42
20.0
 43
20.0
  0
ATTRIB
  5
968
330
967
100
AcDbEntity
  8
0
100
AcDbText
 10
2055.029426138609
 20
1420.044100109817
 30
0.0
 40
30.0
  1
UFFICI
  7
ROMANS
 72
     4
 11
2122.886568995752
 21
1435.044100109817
 31
0.0
100
AcDbAttribute
  2
DEST-LOC
 70
     0
  0
ATTRIB
  5
969
330
967
100
AcDbEntity
  8
0
100
AcDbText
 10
2122.886568995752
 20
1406.585352354078
 30
0.0
 40
20.0
  1

  7
ROMANS
 72
     4
 11
2122.886568995752
 21
1406.585352354078
 31
0.0
100
AcDbAttribute
  2
DEST-LOC
 70
     0
  0
SEQEND
  5
96A
330
967
100
AcDbEntity
  8
DEST-LOC
  0
TEXT
  5
96B
330
1F
100
AcDbEntity
  8
QUOTE-ANT
100
AcDbText
 10
2072.273856842839
 20
1356.834537904122
 30
0.0
 40
30.0
  1
+300
  7
ROMANS
100
AcDbText
  0
INSERT
  5
96C
330
1F
100
AcDbEntity
  8
SCRITTE-VARIE
100
AcDbBlockReference
  2
A$C100B143C
 10
4266.061803094856
 20
6366.725560172156
 30
0.0
 41
1.59999999999911
 42
1.600000000000363
 43
1280.824229898207
 50
42.07028415392429
  0
LINE
  5
96D
330
1F
100
AcDbEntity
  8
0
 62
     1
100
AcDbLine
 10
1650.442168411023
 20
5789.96505726301
 30
0.0
 11
1568.487939876078
 21
5789.96505726301
 31
0.0
  0
LINE
  5
96E
330
1F
100
AcDbEntity
  8
0
 62
     1
100
AcDbLine
 10
1650.439387061308
 20
5787.565057263009
 30
0.0
 11
1568.490721225799
 21
5787.565057263002
 31
0.0
  0
LINE
  5
96F
330
1F
100
AcDbEntity
  8
0
 62
     1
100
AcDbLine
 10
1581.141011373838
 20
5816.283299150955
 30
0.0
 11
1595.541011373861
 21
5816.283299150955
 31
0.0
  0
LINE
  5
970
330
1F
100
AcDbEntity
  8
0
 62
     1
100
AcDbLine
 10
1569.348964791952
 20
5824.41845845706
 30
0.0
 11
1649.581143495149
 21
5824.41845845706
 31
0.0
  0
LINE
  5
971
330
1F
100
AcDbEntity
  8
0
 62
     1
100
AcDbLine
 10
1653.664676110445
 20
5824.41845845706
 30
0.0
 11
1649.581143495149
 21
5824.41845845706
 31
0.0
  0
ARC
  5
972
330
1F
100
AcDbEntity
  8
0
 62
     1
100
AcDbCircle
 10
1650.442168411023
 20
5795.565057263008
 30
0.0
 40
5.6
100
AcDbArc
 50
270.0
 51
357.2431907803149
  0
ARC
  5
973
330
1F
100
AcDbEntity
  8
0
 62
     1
100
AcDbCircle
 10
1650.439387618858
 20
5795.565057263008
 30
0.0
 40
8.0
100
AcDbArc
 50
269.9999960067948
 51
357.2431907803149
  0
LINE
  5
974
330
1F
100
AcDbEntity
  8
0
 62
     1
100
AcDbLine
 10
1656.035687405306
 20
5795.295714989113
 30
0.0
 11
1655.966996238264
 21
5818.549116183173
 31
0.0
  0
ARC
  5
975
330
1F
100
AcDbEntity
  8
0
 62
     1
100
AcDbCircle
 10
1649.697364187788
 20
5818.13632716484
 30
0.0
 40
6.283206253350315
100
AcDbArc
 50
3.766884968351435
 51
91.05986254258796
  0
ARC
  5
976
330
1F
100
AcDbEntity
  8
0
 62
     1
100
AcDbCircle
 10
1653.77213460507
 20
5819.676394854639
 30
0.0
 40
4.743280988673778
100
AcDbArc
 50
9.000623463098323
 51
91.29814046816674
  0
LINE
  5
977
330
1F
100
AcDbEntity
  8
0
 62
     1
100
AcDbLine
 10
1658.430129039293
 20
5795.180282586012
 30
0.0
 11
1658.464799299595
 21
5827.731898506672
 31
0.0
  0
ARC
  5
978
330
1F
100
AcDbEntity
  8
0
 62
     1
100
AcDbCircle
 10
1653.77213460507
 20
5828.422993660581
 30
0.0
 40
4.743280988673778
100
AcDbArc
 50
351.6221940703799
 51
91.29814046816674
  0
CIRCLE
  5
979
330
1F
100
AcDbEntity
  8
0
 62
     1
100
AcDbCircle
 10
1588.073098427823
 20
5828.365057263003
 30
0.0
 40
1.82
  0
LINE
  5
97A
330
1F
100
AcDbEntity
  8
0
 62
     1
100
AcDbLine
 10
1588.341011373849
 20
5809.083299150951
 30
0.0
 11
1588.341011373849
 21
5823.483299150959
 31
0.0
  0
CIRCLE
  5
97B
330
1F
100
AcDbEntity
  8
0
 62
     1
100
AcDbCircle
 10
1588.341011373849
 20
5816.283299150953
 30
0.0
 40
2.408408220001376
  0
CIRCLE
  5
97C
330
1F
100
AcDbEntity
  8
0
 62
     1
100
AcDbCircle
 10
1588.341011373849
 20
5816.283299150953
 30
0.0
 40
3.599999999999999
  0
CIRCLE
  5
97D
330
1F
100
AcDbEntity
  8
0
 62
     1
100
AcDbCircle
 10
1613.298883574934
 20
5816.283299150953
 30
0.0
 40
3.599999999999999
  0
CIRCLE
  5
97E
330
1F
100
AcDbEntity
  8
0
 62
     1
100
AcDbCircle
 10
1613.298883574934
 20
5816.283299150953
 30
0.0
 40
2.408408220001376
  0
LINE
  5
97F
330
1F
100
AcDbEntity
  8
0
 62
     1
100
AcDbLine
 10
1606.098883574922
 20
5816.283299150955
 30
0.0
 11
1620.498883574946
 21
5816.283299150955
 31
0.0
  0
LINE
  5
980
330
1F
100
AcDbEntity
  8
0
 62
     1
100
AcDbLine
 10
1613.298883574934
 20
5809.083299150951
 30
0.0
 11
1613.298883574934
 21
5823.483299150959
 31
0.0
  0
CIRCLE
  5
981
330
1F
100
AcDbEntity
  8
0
 62
     1
100
AcDbCircle
 10
1613.030970628907
 20
5828.365057263003
 30
0.0
 40
1.82
  0
CIRCLE
  5
982
330
1F
100
AcDbEntity
  8
0
 62
     1
100
AcDbCircle
 10
1637.988842829992
 20
5828.365057263003
 30
0.0
 40
1.82
  0
LINE
  5
983
330
1F
100
AcDbEntity
  8
0
 62
     1
100
AcDbLine
 10
1638.256755776018
 20
5809.083299150951
 30
0.0
 11
1638.256755776018
 21
5823.483299150959
 31
0.0
  0
LINE
  5
984
330
1F
100
AcDbEntity
  8
0
 62
     1
100
AcDbLine
 10
1631.056755776007
 20
5816.283299150955
 30
0.0
 11
1645.45675577603
 21
5816.283299150955
 31
0.0
  0
CIRCLE
  5
985
330
1F
100
AcDbEntity
  8
0
 62
     1
100
AcDbCircle
 10
1638.256755776018
 20
5816.283299150953
 30
0.0
 40
2.408408220001376
  0
CIRCLE
  5
986
330
1F
100
AcDbEntity
  8
0
 62
     1
100
AcDbCircle
 10
1638.256755776018
 20
5816.283299150953
 30
0.0
 40
3.599999999999999
  0
LINE
  5
987
330
1F
100
AcDbEntity
  8
0
 62
     1
100
AcDbLine
 10
1653.665702537716
 20
5824.41845845706
 30
0.0
 11
1649.581143495149
 21
5824.41845845706
 31
0.0
  0
ARC
  5
988
330
1F
100
AcDbEntity
  8
0
 62
     1
100
AcDbCircle
 10
1565.15797368203
 20
5828.422993660581
 30
0.0
 40
4.743280988673778
100
AcDbArc
 50
88.70185953183327
 51
188.3778059296201
  0
LINE
  5
989
330
1F
100
AcDbEntity
  8
0
 62
     1
100
AcDbLine
 10
1560.499979247808
 20
5795.180282586012
 30
0.0
 11
1560.465308987506
 21
5827.731898506672
 31
0.0
  0
ARC
  5
98A
330
1F
100
AcDbEntity
  8
0
 62
     1
100
AcDbCircle
 10
1565.15797368203
 20
5819.676394854639
 30
0.0
 40
4.743280988673778
100
AcDbArc
 50
88.70185953183327
 51
170.9993765369017
  0
LINE
  5
98B
330
1F
100
AcDbEntity
  8
0
 62
     1
100
AcDbLine
 10
1562.894420881795
 20
5795.295714989113
 30
0.0
 11
1562.963112048837
 21
5818.549116183173
 31
0.0
  0
LINE
  5
98C
330
1F
100
AcDbEntity
  8
0
 62
     1
100
AcDbLine
 10
1565.050515187434
 20
5833.165057263008
 30
0.0
 11
1656.065702537696
 21
5833.165057263008
 31
0.0
  0
ARC
  5
98D
330
1F
100
AcDbEntity
  8
0
 62
     1
100
AcDbCircle
 10
1569.232744099309
 20
5818.13632716484
 30
0.0
 40
6.283206253350315
100
AcDbArc
 50
88.94013745741203
 51
176.2331150316486
  0
ARC
  5
98E
330
1F
100
AcDbEntity
  8
0
 62
     1
100
AcDbCircle
 10
1568.490720668243
 20
5795.565057263008
 30
0.0
 40
8.0
100
AcDbArc
 50
182.7568092196851
 51
270.000003993101
  0
ARC
  5
98F
330
1F
100
AcDbEntity
  8
0
 62
     1
100
AcDbCircle
 10
1568.487939876078
 20
5795.565057263008
 30
0.0
 40
5.6
100
AcDbArc
 50
182.7568092196851
 51
270.0
  0
LINE
  5
990
330
1F
100
AcDbEntity
  8
0
 62
     1
100
AcDbLine
 10
1565.265432176656
 20
5824.41845845706
 30
0.0
 11
1569.348964791952
 21
5824.41845845706
 31
0.0
  0
LINE
  5
991
330
1F
100
AcDbEntity
  8
0
 62
     1
100
AcDbLine
 10
1664.222908851628
 20
5824.41845845706
 30
0.0
 11
1668.306441466923
 21
5824.41845845706
 31
0.0
  0
ARC
  5
992
330
1F
100
AcDbEntity
  8
0
 62
     1
100
AcDbCircle
 10
1667.44541655105
 20
5795.565057263008
 30
0.0
 40
5.6
100
AcDbArc
 50
182.7568092196851
 51
270.0
  0
ARC
  5
993
330
1F
100
AcDbEntity
  8
0
 62
     1
100
AcDbCircle
 10
1667.448197343215
 20
5795.565057263008
 30
0.0
 40
8.0
100
AcDbArc
 50
182.7568092196851
 51
270.000003993101
  0
ARC
  5
994
330
1F
100
AcDbEntity
  8
0
 62
     1
100
AcDbCircle
 10
1668.190220774281
 20
5818.13632716484
 30
0.0
 40
6.283206253350315
100
AcDbArc
 50
88.94013745741203
 51
176.2331150316486
  0
LINE
  5
995
330
1F
100
AcDbEntity
  8
0
 62
     1
100
AcDbLine
 10
1664.007991862406
 20
5833.165057263008
 30
0.0
 11
1755.023179212668
 21
5833.165057263008
 31
0.0
  0
LINE
  5
996
330
1F
100
AcDbEntity
  8
0
 62
     1
100
AcDbLine
 10
1661.851897556767
 20
5795.295714989113
 30
0.0
 11
1661.920588723809
 21
5818.549116183173
 31
0.0
  0
ARC
  5
997
330
1F
100
AcDbEntity
  8
0
 62
     1
100
AcDbCircle
 10
1664.115450357002
 20
5819.676394854639
 30
0.0
 40
4.743280988673778
100
AcDbArc
 50
88.70185953183327
 51
170.9993765369017
  0
LINE
  5
998
330
1F
100
AcDbEntity
  8
0
 62
     1
100
AcDbLine
 10
1659.45745592278
 20
5795.180282586012
 30
0.0
 11
1659.422785662477
 21
5827.731898506672
 31
0.0
  0
ARC
  5
999
330
1F
100
AcDbEntity
  8
0
 62
     1
100
AcDbCircle
 10
1664.115450357002
 20
5828.422993660581
 30
0.0
 40
4.743280988673778
100
AcDbArc
 50
88.70185953183327
 51
188.3778059296201
  0
LINE
  5
99A
330
1F
100
AcDbEntity
  8
0
 62
     1
100
AcDbLine
 10
1752.623179212688
 20
5824.41845845706
 30
0.0
 11
1748.538620170121
 21
5824.41845845706
 31
0.0
  0
CIRCLE
  5
99B
330
1F
100
AcDbEntity
  8
0
 62
     1
100
AcDbCircle
 10
1737.214232450991
 20
5816.283299150953
 30
0.0
 40
3.599999999999999
  0
CIRCLE
  5
99C
330
1F
100
AcDbEntity
  8
0
 62
     1
100
AcDbCircle
 10
1737.214232450991
 20
5816.283299150953
 30
0.0
 40
2.408408220001376
  0
LINE
  5
99D
330
1F
100
AcDbEntity
  8
0
 62
     1
100
AcDbLine
 10
1730.014232450979
 20
5816.283299150955
 30
0.0
 11
1744.414232451002
 21
5816.283299150955
 31
0.0
  0
LINE
  5
99E
330
1F
100
AcDbEntity
  8
0
 62
     1
100
AcDbLine
 10
1737.214232450991
 20
5809.083299150951
 30
0.0
 11
1737.214232450991
 21
5823.483299150959
 31
0.0
  0
CIRCLE
  5
99F
330
1F
100
AcDbEntity
  8
0
 62
     1
100
AcDbCircle
 10
1736.946319504964
 20
5828.365057263003
 30
0.0
 40
1.82
  0
CIRCLE
  5
9A0
330
1F
100
AcDbEntity
  8
0
 62
     1
100
AcDbCircle
 10
1711.988447303879
 20
5828.365057263003
 30
0.0
 40
1.82
  0
LINE
  5
9A1
330
1F
100
AcDbEntity
  8
0
 62
     1
100
AcDbLine
 10
1712.256360249906
 20
5809.083299150951
 30
0.0
 11
1712.256360249906
 21
5823.483299150959
 31
0.0
  0
LINE
  5
9A2
330
1F
100
AcDbEntity
  8
0
 62
     1
100
AcDbLine
 10
1705.056360249894
 20
5816.283299150955
 30
0.0
 11
1719.456360249917
 21
5816.283299150955
 31
0.0
  0
CIRCLE
  5
9A3
330
1F
100
AcDbEntity
  8
0
 62
     1
100
AcDbCircle
 10
1712.256360249906
 20
5816.283299150953
 30
0.0
 40
2.408408220001376
  0
CIRCLE
  5
9A4
330
1F
100
AcDbEntity
  8
0
 62
     1
100
AcDbCircle
 10
1712.256360249906
 20
5816.283299150953
 30
0.0
 40
3.599999999999999
  0
CIRCLE
  5
9A5
330
1F
100
AcDbEntity
  8
0
 62
     1
100
AcDbCircle
 10
1687.298488048821
 20
5816.283299150953
 30
0.0
 40
3.599999999999999
  0
CIRCLE
  5
9A6
330
1F
100
AcDbEntity
  8
0
 62
     1
100
AcDbCircle
 10
1687.298488048821
 20
5816.283299150953
 30
0.0
 40
2.408408220001376
  0
LINE
  5
9A7
330
1F
100
AcDbEntity
  8
0
 62
     1
100
AcDbLine
 10
1687.298488048821
 20
5809.083299150951
 30
0.0
 11
1687.298488048821
 21
5823.483299150959
 31
0.0
  0
CIRCLE
  5
9A8
330
1F
100
AcDbEntity
  8
0
 62
     1
100
AcDbCircle
 10
1687.030575102795
 20
5828.365057263003
 30
0.0
 40
1.82
  0
ARC
  5
9A9
330
1F
100
AcDbEntity
  8
0
 62
     1
100
AcDbCircle
 10
1752.729611280042
 20
5828.422993660581
 30
0.0
 40
4.743280988673778
100
AcDbArc
 50
351.6221940703799
 51
91.29814046816674
  0
LINE
  5
9AA
330
1F
100
AcDbEntity
  8
0
 62
     1
100
AcDbLine
 10
1757.387605714265
 20
5795.180282586012
 30
0.0
 11
1757.422275974567
 21
5827.731898506672
 31
0.0
  0
ARC
  5
9AB
330
1F
100
AcDbEntity
  8
0
 62
     1
100
AcDbCircle
 10
1752.729611280042
 20
5819.676394854639
 30
0.0
 40
4.743280988673778
100
AcDbArc
 50
9.000623463098323
 51
91.29814046816674
  0
ARC
  5
9AC
330
1F
100
AcDbEntity
  8
0
 62
     1
100
AcDbCircle
 10
1748.65484086276
 20
5818.13632716484
 30
0.0
 40
6.283206253350315
100
AcDbArc
 50
3.766884968351435
 51
91.05986254258796
  0
LINE
  5
9AD
330
1F
100
AcDbEntity
  8
0
 62
     1
100
AcDbLine
 10
1754.993164080278
 20
5795.295714989113
 30
0.0
 11
1754.924472913236
 21
5818.549116183173
 31
0.0
  0
ARC
  5
9AE
330
1F
100
AcDbEntity
  8
0
 62
     1
100
AcDbCircle
 10
1749.39686429383
 20
5795.565057263008
 30
0.0
 40
8.0
100
AcDbArc
 50
269.9999960067948
 51
357.2431907803149
  0
ARC
  5
9AF
330
1F
100
AcDbEntity
  8
0
 62
     1
100
AcDbCircle
 10
1749.399645085995
 20
5795.565057263008
 30
0.0
 40
5.6
100
AcDbArc
 50
270.0
 51
357.2431907803149
  0
LINE
  5
9B0
330
1F
100
AcDbEntity
  8
0
 62
     1
100
AcDbLine
 10
1752.622152785417
 20
5824.41845845706
 30
0.0
 11
1748.538620170121
 21
5824.41845845706
 31
0.0
  0
LINE
  5
9B1
330
1F
100
AcDbEntity
  8
0
 62
     1
100
AcDbLine
 10
1668.306441466923
 20
5824.41845845706
 30
0.0
 11
1748.538620170121
 21
5824.41845845706
 31
0.0
  0
LINE
  5
9B2
330
1F
100
AcDbEntity
  8
0
 62
     1
100
AcDbLine
 10
1680.09848804881
 20
5816.283299150955
 30
0.0
 11
1694.498488048833
 21
5816.283299150955
 31
0.0
  0
LINE
  5
9B3
330
1F
100
AcDbEntity
  8
0
 62
     1
100
AcDbLine
 10
1749.396863736281
 20
5787.565057263009
 30
0.0
 11
1667.448197900771
 21
5787.565057263002
 31
0.0
  0
LINE
  5
9B4
330
1F
100
AcDbEntity
  8
0
 62
     1
100
AcDbLine
 10
1749.399645085995
 20
5789.96505726301
 30
0.0
 11
1667.44541655105
 21
5789.96505726301
 31
0.0
  0
LINE
  5
9B5
330
1F
100
AcDbEntity
  8
0
 62
     1
100
AcDbLine
 10
3091.343540585909
 20
5790.47174865714
 30
0.0
 11
3009.389312050963
 21
5790.47174865714
 31
0.0
  0
LINE
  5
9B6
330
1F
100
AcDbEntity
  8
0
 62
     1
100
AcDbLine
 10
3091.340759236194
 20
5788.071748657139
 30
0.0
 11
3009.392093400685
 21
5788.071748657132
 31
0.0
  0
LINE
  5
9B7
330
1F
100
AcDbEntity
  8
0
 62
     1
100
AcDbLine
 10
3022.042383548723
 20
5816.789990545085
 30
0.0
 11
3036.442383548746
 21
5816.789990545085
 31
0.0
  0
LINE
  5
9B8
330
1F
100
AcDbEntity
  8
0
 62
     1
100
AcDbLine
 10
3010.250336966837
 20
5824.925149851189
 30
0.0
 11
3090.482515670034
 21
5824.925149851189
 31
0.0
  0
LINE
  5
9B9
330
1F
100
AcDbEntity
  8
0
 62
     1
100
AcDbLine
 10
3094.56604828533
 20
5824.925149851189
 30
0.0
 11
3090.482515670034
 21
5824.925149851189
 31
0.0
  0
ARC
  5
9BA
330
1F
100
AcDbEntity
  8
0
 62
     1
100
AcDbCircle
 10
3091.343540585909
 20
5796.07174865714
 30
0.0
 40
5.6
100
AcDbArc
 50
270.0
 51
357.2431907803149
  0
ARC
  5
9BB
330
1F
100
AcDbEntity
  8
0
 62
     1
100
AcDbCircle
 10
3091.340759793743
 20
5796.07174865714
 30
0.0
 40
8.0
100
AcDbArc
 50
269.9999960067948
 51
357.2431907803149
  0
LINE
  5
9BC
330
1F
100
AcDbEntity
  8
0
 62
     1
100
AcDbLine
 10
3096.937059580191
 20
5795.802406383244
 30
0.0
 11
3096.868368413149
 21
5819.055807577303
 31
0.0
  0
ARC
  5
9BD
330
1F
100
AcDbEntity
  8
0
 62
     1
100
AcDbCircle
 10
3090.598736362673
 20
5818.643018558972
 30
0.0
 40
6.283206253350315
100
AcDbArc
 50
3.766884968351435
 51
91.05986254258796
  0
ARC
  5
9BE
330
1F
100
AcDbEntity
  8
0
 62
     1
100
AcDbCircle
 10
3094.673506779956
 20
5820.183086248771
 30
0.0
 40
4.743280988673778
100
AcDbArc
 50
9.000623463098323
 51
91.29814046816674
  0
LINE
  5
9BF
330
1F
100
AcDbEntity
  8
0
 62
     1
100
AcDbLine
 10
3099.331501214179
 20
5795.686973980142
 30
0.0
 11
3099.366171474481
 21
5828.238589900802
 31
0.0
  0
ARC
  5
9C0
330
1F
100
AcDbEntity
  8
0
 62
     1
100
AcDbCircle
 10
3094.673506779956
 20
5828.929685054712
 30
0.0
 40
4.743280988673778
100
AcDbArc
 50
351.6221940703799
 51
91.29814046816674
  0
CIRCLE
  5
9C1
330
1F
100
AcDbEntity
  8
0
 62
     1
100
AcDbCircle
 10
3028.974470602708
 20
5828.871748657135
 30
0.0
 40
1.82
  0
LINE
  5
9C2
330
1F
100
AcDbEntity
  8
0
 62
     1
100
AcDbLine
 10
3029.242383548734
 20
5809.589990545081
 30
0.0
 11
3029.242383548734
 21
5823.98999054509
 31
0.0
  0
CIRCLE
  5
9C3
330
1F
100
AcDbEntity
  8
0
 62
     1
100
AcDbCircle
 10
3029.242383548734
 20
5816.789990545085
 30
0.0
 40
2.408408220001376
  0
CIRCLE
  5
9C4
330
1F
100
AcDbEntity
  8
0
 62
     1
100
AcDbCircle
 10
3029.242383548734
 20
5816.789990545085
 30
0.0
 40
3.599999999999999
  0
CIRCLE
  5
9C5
330
1F
100
AcDbEntity
  8
0
 62
     1
100
AcDbCircle
 10
3054.200255749819
 20
5816.789990545085
 30
0.0
 40
3.599999999999999
  0
CIRCLE
  5
9C6
330
1F
100
AcDbEntity
  8
0
 62
     1
100
AcDbCircle
 10
3054.200255749819
 20
5816.789990545085
 30
0.0
 40
2.408408220001376
  0
LINE
  5
9C7
330
1F
100
AcDbEntity
  8
0
 62
     1
100
AcDbLine
 10
3047.000255749808
 20
5816.789990545085
 30
0.0
 11
3061.400255749831
 21
5816.789990545085
 31
0.0
  0
LINE
  5
9C8
330
1F
100
AcDbEntity
  8
0
 62
     1
100
AcDbLine
 10
3054.200255749819
 20
5809.589990545081
 30
0.0
 11
3054.200255749819
 21
5823.98999054509
 31
0.0
  0
CIRCLE
  5
9C9
330
1F
100
AcDbEntity
  8
0
 62
     1
100
AcDbCircle
 10
3053.932342803792
 20
5828.871748657135
 30
0.0
 40
1.82
  0
CIRCLE
  5
9CA
330
1F
100
AcDbEntity
  8
0
 62
     1
100
AcDbCircle
 10
3078.890215004877
 20
5828.871748657135
 30
0.0
 40
1.82
  0
LINE
  5
9CB
330
1F
100
AcDbEntity
  8
0
 62
     1
100
AcDbLine
 10
3079.158127950904
 20
5809.589990545081
 30
0.0
 11
3079.158127950904
 21
5823.98999054509
 31
0.0
  0
LINE
  5
9CC
330
1F
100
AcDbEntity
  8
0
 62
     1
100
AcDbLine
 10
3071.958127950892
 20
5816.789990545085
 30
0.0
 11
3086.358127950916
 21
5816.789990545085
 31
0.0
  0
CIRCLE
  5
9CD
330
1F
100
AcDbEntity
  8
0
 62
     1
100
AcDbCircle
 10
3079.158127950904
 20
5816.789990545085
 30
0.0
 40
2.408408220001376
  0
CIRCLE
  5
9CE
330
1F
100
AcDbEntity
  8
0
 62
     1
100
AcDbCircle
 10
3079.158127950904
 20
5816.789990545085
 30
0.0
 40
3.599999999999999
  0
LINE
  5
9CF
330
1F
100
AcDbEntity
  8
0
 62
     1
100
AcDbLine
 10
3094.567074712602
 20
5824.925149851189
 30
0.0
 11
3090.482515670034
 21
5824.925149851189
 31
0.0
  0
ARC
  5
9D0
330
1F
100
AcDbEntity
  8
0
 62
     1
100
AcDbCircle
 10
3006.059345856916
 20
5828.929685054712
 30
0.0
 40
4.743280988673778
100
AcDbArc
 50
88.70185953183327
 51
188.3778059296201
  0
LINE
  5
9D1
330
1F
100
AcDbEntity
  8
0
 62
     1
100
AcDbLine
 10
3001.401351422693
 20
5795.686973980142
 30
0.0
 11
3001.366681162391
 21
5828.238589900802
 31
0.0
  0
ARC
  5
9D2
330
1F
100
AcDbEntity
  8
0
 62
     1
100
AcDbCircle
 10
3006.059345856916
 20
5820.183086248771
 30
0.0
 40
4.743280988673778
100
AcDbArc
 50
88.70185953183327
 51
170.9993765369017
  0
LINE
  5
9D3
330
1F
100
AcDbEntity
  8
0
 62
     1
100
AcDbLine
 10
3003.79579305668
 20
5795.802406383244
 30
0.0
 11
3003.864484223722
 21
5819.055807577303
 31
0.0
  0
LINE
  5
9D4
330
1F
100
AcDbEntity
  8
0
 62
     1
100
AcDbLine
 10
3005.95188736232
 20
5833.671748657138
 30
0.0
 11
3096.967074712581
 21
5833.671748657138
 31
0.0
  0
ARC
  5
9D5
330
1F
100
AcDbEntity
  8
0
 62
     1
100
AcDbCircle
 10
3010.134116274195
 20
5818.643018558972
 30
0.0
 40
6.283206253350315
100
AcDbArc
 50
88.94013745741203
 51
176.2331150316486
  0
ARC
  5
9D6
330
1F
100
AcDbEntity
  8
0
 62
     1
100
AcDbCircle
 10
3009.392092843128
 20
5796.07174865714
 30
0.0
 40
8.0
100
AcDbArc
 50
182.7568092196851
 51
270.000003993101
  0
ARC
  5
9D7
330
1F
100
AcDbEntity
  8
0
 62
     1
100
AcDbCircle
 10
3009.389312050963
 20
5796.07174865714
 30
0.0
 40
5.6
100
AcDbArc
 50
182.7568092196851
 51
270.0
  0
LINE
  5
9D8
330
1F
100
AcDbEntity
  8
0
 62
     1
100
AcDbLine
 10
3006.166804351541
 20
5824.925149851189
 30
0.0
 11
3010.250336966837
 21
5824.925149851189
 31
0.0
  0
LINE
  5
9D9
330
1F
100
AcDbEntity
  8
0
 62
     1
100
AcDbLine
 10
2907.209327676569
 20
5824.925149851189
 30
0.0
 11
2911.292860291865
 21
5824.925149851189
 31
0.0
  0
ARC
  5
9DA
330
1F
100
AcDbEntity
  8
0
 62
     1
100
AcDbCircle
 10
2910.431835375991
 20
5796.07174865714
 30
0.0
 40
5.6
100
AcDbArc
 50
182.7568092196851
 51
270.0
  0
ARC
  5
9DB
330
1F
100
AcDbEntity
  8
0
 62
     1
100
AcDbCircle
 10
2910.434616168156
 20
5796.07174865714
 30
0.0
 40
8.0
100
AcDbArc
 50
182.7568092196851
 51
270.000003993101
  0
ARC
  5
9DC
330
1F
100
AcDbEntity
  8
0
 62
     1
100
AcDbCircle
 10
2911.176639599223
 20
5818.643018558972
 30
0.0
 40
6.283206253350315
100
AcDbArc
 50
88.94013745741203
 51
176.2331150316486
  0
LINE
  5
9DD
330
1F
100
AcDbEntity
  8
0
 62
     1
100
AcDbLine
 10
2906.994410687347
 20
5833.671748657138
 30
0.0
 11
2998.009598037609
 21
5833.671748657138
 31
0.0
  0
LINE
  5
9DE
330
1F
100
AcDbEntity
  8
0
 62
     1
100
AcDbLine
 10
2904.838316381708
 20
5795.802406383244
 30
0.0
 11
2904.90700754875
 21
5819.055807577303
 31
0.0
  0
ARC
  5
9DF
330
1F
100
AcDbEntity
  8
0
 62
     1
100
AcDbCircle
 10
2907.101869181944
 20
5820.183086248771
 30
0.0
 40
4.743280988673778
100
AcDbArc
 50
88.70185953183327
 51
170.9993765369017
  0
LINE
  5
9E0
330
1F
100
AcDbEntity
  8
0
 62
     1
100
AcDbLine
 10
2902.443874747721
 20
5795.686973980142
 30
0.0
 11
2902.409204487419
 21
5828.238589900802
 31
0.0
  0
ARC
  5
9E1
330
1F
100
AcDbEntity
  8
0
 62
     1
100
AcDbCircle
 10
2907.101869181944
 20
5828.929685054712
 30
0.0
 40
4.743280988673778
100
AcDbArc
 50
88.70185953183327
 51
188.3778059296201
  0
LINE
  5
9E2
330
1F
100
AcDbEntity
  8
0
 62
     1
100
AcDbLine
 10
2995.60959803763
 20
5824.925149851189
 30
0.0
 11
2991.525038995062
 21
5824.925149851189
 31
0.0
  0
CIRCLE
  5
9E3
330
1F
100
AcDbEntity
  8
0
 62
     1
100
AcDbCircle
 10
2980.200651275932
 20
5816.789990545085
 30
0.0
 40
3.599999999999999
  0
CIRCLE
  5
9E4
330
1F
100
AcDbEntity
  8
0
 62
     1
100
AcDbCircle
 10
2980.200651275932
 20
5816.789990545085
 30
0.0
 40
2.408408220001376
  0
LINE
  5
9E5
330
1F
100
AcDbEntity
  8
0
 62
     1
100
AcDbLine
 10
2973.00065127592
 20
5816.789990545085
 30
0.0
 11
2987.400651275943
 21
5816.789990545085
 31
0.0
  0
LINE
  5
9E6
330
1F
100
AcDbEntity
  8
0
 62
     1
100
AcDbLine
 10
2980.200651275932
 20
5809.589990545081
 30
0.0
 11
2980.200651275932
 21
5823.98999054509
 31
0.0
  0
CIRCLE
  5
9E7
330
1F
100
AcDbEntity
  8
0
 62
     1
100
AcDbCircle
 10
2979.932738329905
 20
5828.871748657135
 30
0.0
 40
1.82
  0
CIRCLE
  5
9E8
330
1F
100
AcDbEntity
  8
0
 62
     1
100
AcDbCircle
 10
2954.974866128821
 20
5828.871748657135
 30
0.0
 40
1.82
  0
LINE
  5
9E9
330
1F
100
AcDbEntity
  8
0
 62
     1
100
AcDbLine
 10
2955.242779074847
 20
5809.589990545081
 30
0.0
 11
2955.242779074847
 21
5823.98999054509
 31
0.0
  0
LINE
  5
9EA
330
1F
100
AcDbEntity
  8
0
 62
     1
100
AcDbLine
 10
2948.042779074836
 20
5816.789990545085
 30
0.0
 11
2962.442779074859
 21
5816.789990545085
 31
0.0
  0
CIRCLE
  5
9EB
330
1F
100
AcDbEntity
  8
0
 62
     1
100
AcDbCircle
 10
2955.242779074847
 20
5816.789990545085
 30
0.0
 40
2.408408220001376
  0
CIRCLE
  5
9EC
330
1F
100
AcDbEntity
  8
0
 62
     1
100
AcDbCircle
 10
2955.242779074847
 20
5816.789990545085
 30
0.0
 40
3.599999999999999
  0
CIRCLE
  5
9ED
330
1F
100
AcDbEntity
  8
0
 62
     1
100
AcDbCircle
 10
2930.284906873763
 20
5816.789990545085
 30
0.0
 40
3.599999999999999
  0
CIRCLE
  5
9EE
330
1F
100
AcDbEntity
  8
0
 62
     1
100
AcDbCircle
 10
2930.284906873763
 20
5816.789990545085
 30
0.0
 40
2.408408220001376
  0
LINE
  5
9EF
330
1F
100
AcDbEntity
  8
0
 62
     1
100
AcDbLine
 10
2930.284906873763
 20
5809.589990545081
 30
0.0
 11
2930.284906873763
 21
5823.98999054509
 31
0.0
  0
CIRCLE
  5
9F0
330
1F
100
AcDbEntity
  8
0
 62
     1
100
AcDbCircle
 10
2930.016993927736
 20
5828.871748657135
 30
0.0
 40
1.82
  0
ARC
  5
9F1
330
1F
100
AcDbEntity
  8
0
 62
     1
100
AcDbCircle
 10
2995.716030104984
 20
5828.929685054712
 30
0.0
 40
4.743280988673778
100
AcDbArc
 50
351.6221940703799
 51
91.29814046816674
  0
LINE
  5
9F2
330
1F
100
AcDbEntity
  8
0
 62
     1
100
AcDbLine
 10
3000.374024539207
 20
5795.686973980142
 30
0.0
 11
3000.408694799509
 21
5828.238589900802
 31
0.0
  0
ARC
  5
9F3
330
1F
100
AcDbEntity
  8
0
 62
     1
100
AcDbCircle
 10
2995.716030104984
 20
5820.183086248771
 30
0.0
 40
4.743280988673778
100
AcDbArc
 50
9.000623463098323
 51
91.29814046816674
  0
ARC
  5
9F4
330
1F
100
AcDbEntity
  8
0
 62
     1
100
AcDbCircle
 10
2991.641259687701
 20
5818.643018558972
 30
0.0
 40
6.283206253350315
100
AcDbArc
 50
3.766884968351435
 51
91.05986254258796
  0
LINE
  5
9F5
330
1F
100
AcDbEntity
  8
0
 62
     1
100
AcDbLine
 10
2997.97958290522
 20
5795.802406383244
 30
0.0
 11
2997.910891738177
 21
5819.055807577303
 31
0.0
  0
ARC
  5
9F6
330
1F
100
AcDbEntity
  8
0
 62
     1
100
AcDbCircle
 10
2992.383283118771
 20
5796.07174865714
 30
0.0
 40
8.0
100
AcDbArc
 50
269.9999960067948
 51
357.2431907803149
  0
ARC
  5
9F7
330
1F
100
AcDbEntity
  8
0
 62
     1
100
AcDbCircle
 10
2992.386063910937
 20
5796.07174865714
 30
0.0
 40
5.6
100
AcDbArc
 50
270.0
 51
357.2431907803149
  0
LINE
  5
9F8
330
1F
100
AcDbEntity
  8
0
 62
     1
100
AcDbLine
 10
2995.608571610358
 20
5824.925149851189
 30
0.0
 11
2991.525038995062
 21
5824.925149851189
 31
0.0
  0
LINE
  5
9F9
330
1F
100
AcDbEntity
  8
0
 62
     1
100
AcDbLine
 10
2911.292860291865
 20
5824.925149851189
 30
0.0
 11
2991.525038995062
 21
5824.925149851189
 31
0.0
  0
LINE
  5
9FA
330
1F
100
AcDbEntity
  8
0
 62
     1
100
AcDbLine
 10
2923.084906873751
 20
5816.789990545085
 30
0.0
 11
2937.484906873774
 21
5816.789990545085
 31
0.0
  0
LINE
  5
9FB
330
1F
100
AcDbEntity
  8
0
 62
     1
100
AcDbLine
 10
2992.383282561222
 20
5788.071748657139
 30
0.0
 11
2910.434616725713
 21
5788.071748657132
 31
0.0
  0
LINE
  5
9FC
330
1F
100
AcDbEntity
  8
0
 62
     1
100
AcDbLine
 10
2992.386063910937
 20
5790.47174865714
 30
0.0
 11
2910.431835375991
 21
5790.47174865714
 31
0.0
  0
INSERT
  5
9FD
330
1F
100
AcDbEntity
  8
4620_P3$0$ARREDO-BA
100
AcDbBlockReference
  2
WATER
 10
2792.708625023711
 20
1676.503740640959
 30
0.0
 41
0.1000000000003638
 42
0.1000000000003638
 43
0.1
 50
270.0
  0
INSERT
  5
9FE
330
1F
100
AcDbEntity
  8
4620_P2$0$ARREDO-BA
100
AcDbBlockReference
  2
4620_P2$0$LAVABO-1
 10
2795.00932229101
 20
1484.394322381941
 30
0.0
 50
270.0
  0
CIRCLE
  5
9FF
330
1F
100
AcDbEntity
  8
0
 62
     1
100
AcDbCircle
 10
3209.104499835949
 20
6120.603888998275
 30
0.0
 40
10.0
  0
LINE
  5
A00
330
1F
100
AcDbEntity
  8
0
 62
     1
100
AcDbLine
 10
3230.354499835953
 20
6092.398169562233
 30
0.0
 11
3219.104499835953
 21
6092.398169562233
 31
0.0
  0
LINE
  5
A01
330
1F
100
AcDbEntity
  8
0
 62
     1
100
AcDbLine
 10
3230.354499835953
 20
6086.148169562233
 30
0.0
 11
3219.104499835953
 21
6086.148169562233
 31
0.0
  0
LINE
  5
A02
330
1F
100
AcDbEntity
  8
0
 62
     1
100
AcDbLine
 10
3230.354499835949
 20
6079.898169562233
 30
0.0
 11
3219.10449983595
 21
6079.898169562233
 31
0.0
  0
LINE
  5
A03
330
1F
100
AcDbEntity
  8
0
 62
     1
100
AcDbLine
 10
3230.354499835949
 20
6073.648169562233
 30
0.0
 11
3219.10449983595
 21
6073.648169562233
 31
0.0
  0
LINE
  5
A04
330
1F
100
AcDbEntity
  8
0
 62
     1
100
AcDbLine
 10
3230.354499835949
 20
6067.398169562233
 30
0.0
 11
3219.10449983595
 21
6067.398169562233
 31
0.0
  0
ARC
  5
A05
330
1F
100
AcDbEntity
  8
0
 62
     1
100
AcDbCircle
 10
3219.10449983595
 20
6064.898169562233
 30
0.0
 40
3.75
100
AcDbArc
 50
180.0
 51
270.0
  0
LINE
  5
A06
330
1F
100
AcDbEntity
  8
0
 62
     1
100
AcDbLine
 10
3230.354499835949
 20
6061.148169562233
 30
0.0
 11
3219.10449983595
 21
6061.148169562233
 31
0.0
  0
LINE
  5
A07
330
1F
100
AcDbEntity
  8
0
 62
     1
100
AcDbLine
 10
3215.35449983595
 20
6094.898169562234
 30
0.0
 11
3215.35449983595
 21
6064.898169562233
 31
0.0
  0
ARC
  5
A08
330
1F
100
AcDbEntity
  8
0
 62
     1
100
AcDbCircle
 10
3219.10449983595
 20
6094.898169562234
 30
0.0
 40
3.75
100
AcDbArc
 50
90.0
 51
180.0
  0
LINE
  5
A09
330
1F
100
AcDbEntity
  8
0
 62
     1
100
AcDbLine
 10
3230.354499835949
 20
6098.648169562233
 30
0.0
 11
3219.10449983595
 21
6098.648169562233
 31
0.0
  0
ARC
  5
A0A
330
1F
100
AcDbEntity
  8
0
 62
     1
100
AcDbCircle
 10
3230.354499835949
 20
6094.898169562234
 30
0.0
 40
3.75
100
AcDbArc
 50
0.0
 51
90.0
  0
LINE
  5
A0B
330
1F
100
AcDbEntity
  8
0
 62
     1
100
AcDbLine
 10
3234.104499835949
 20
6094.898169562234
 30
0.0
 11
3234.104499835949
 21
6064.898169562233
 31
0.0
  0
ARC
  5
A0C
330
1F
100
AcDbEntity
  8
0
 62
     1
100
AcDbCircle
 10
3230.354499835949
 20
6064.898169562233
 30
0.0
 40
3.75
100
AcDbArc
 50
270.0
 51
0.0
  0
LINE
  5
A0D
330
1F
100
AcDbEntity
  8
0
 62
     1
100
AcDbLine
 10
3199.10449983595
 20
6067.398169562233
 30
0.0
 11
3187.85449983595
 21
6067.398169562233
 31
0.0
  0
LINE
  5
A0E
330
1F
100
AcDbEntity
  8
0
 62
     1
100
AcDbLine
 10
3199.10449983595
 20
6073.648169562233
 30
0.0
 11
3187.85449983595
 21
6073.648169562233
 31
0.0
  0
LINE
  5
A0F
330
1F
100
AcDbEntity
  8
0
 62
     1
100
AcDbLine
 10
3199.10449983595
 20
6079.898169562233
 30
0.0
 11
3187.85449983595
 21
6079.898169562233
 31
0.0
  0
LINE
  5
A10
330
1F
100
AcDbEntity
  8
0
 62
     1
100
AcDbLine
 10
3199.104499835953
 20
6086.148169562233
 30
0.0
 11
3187.854499835953
 21
6086.148169562233
 31
0.0
  0
LINE
  5
A11
330
1F
100
AcDbEntity
  8
0
 62
     1
100
AcDbLine
 10
3199.104499835953
 20
6092.398169562233
 30
0.0
 11
3187.854499835953
 21
6092.398169562233
 31
0.0
  0
ARC
  5
A12
330
1F
100
AcDbEntity
  8
0
 62
     1
100
AcDbCircle
 10
3187.85449983595
 20
6064.898169562233
 30
0.0
 40
3.75
100
AcDbArc
 50
180.0
 51
270.0
  0
LINE
  5
A13
330
1F
100
AcDbEntity
  8
0
 62
     1
100
AcDbLine
 10
3184.10449983595
 20
6094.898169562234
 30
0.0
 11
3184.10449983595
 21
6064.898169562233
 31
0.0
  0
ARC
  5
A14
330
1F
100
AcDbEntity
  8
0
 62
     1
100
AcDbCircle
 10
3187.85449983595
 20
6094.898169562234
 30
0.0
 40
3.75
100
AcDbArc
 50
90.0
 51
180.0
  0
LINE
  5
A15
330
1F
100
AcDbEntity
  8
0
 62
     1
100
AcDbLine
 10
3187.85449983595
 20
6098.648169562233
 30
0.0
 11
3199.10449983595
 21
6098.648169562233
 31
0.0
  0
ARC
  5
A16
330
1F
100
AcDbEntity
  8
0
 62
     1
100
AcDbCircle
 10
3199.10449983595
 20
6094.898169562234
 30
0.0
 40
3.75
100
AcDbArc
 50
0.0
 51
90.0
  0
LINE
  5
A17
330
1F
100
AcDbEntity
  8
0
 62
     1
100
AcDbLine
 10
3202.854499835949
 20
6094.898169562234
 30
0.0
 11
3202.854499835949
 21
6064.898169562233
 31
0.0
  0
LINE
  5
A18
330
1F
100
AcDbEntity
  8
0
 62
     1
100
AcDbLine
 10
3187.85449983595
 20
6061.148169562233
 30
0.0
 11
3199.10449983595
 21
6061.148169562233
 31
0.0
  0
ARC
  5
A19
330
1F
100
AcDbEntity
  8
0
 62
     1
100
AcDbCircle
 10
3199.10449983595
 20
6064.898169562233
 30
0.0
 40
3.75
100
AcDbArc
 50
270.0
 51
0.0
  0
LWPOLYLINE
  5
A1A
330
1F
100
AcDbEntity
  8
0
 62
     1
100
AcDbPolyline
 90
        8
 70
     1
 43
0.0
 10
3237.22949983595
 20
6134.898169562234
 10
3180.979499835949
 20
6134.898169562234
 42
0.4142135623730951
 10
3178.47949983595
 20
6132.398169562233
 10
3178.47949983595
 20
6057.398169562233
 42
0.4142135623730951
 10
3180.979499835949
 20
6054.898169562233
 10
3237.22949983595
 20
6054.898169562233
 42
0.4142135623730951
 10
3239.729499835949
 20
6057.398169562233
 10
3239.729499835949
 20
6132.398169562233
 42
0.4142135623730951
  0
LWPOLYLINE
  5
A1B
330
1F
100
AcDbEntity
  8
0
 62
     1
100
AcDbPolyline
 90
        8
 70
     1
 43
0.0
 10
3237.22949983595
 20
6138.648169562234
 10
3180.979499835949
 20
6138.648169562234
 42
0.4142135623730951
 10
3174.72949983595
 20
6132.398169562233
 10
3174.72949983595
 20
6057.398169562233
 42
0.4142135623730951
 10
3180.979499835949
 20
6051.148169562234
 10
3237.22949983595
 20
6051.148169562234
 42
0.4142135623730951
 10
3243.479499835949
 20
6057.398169562233
 10
3243.479499835949
 20
6132.398169562233
 42
0.4142135623730951
  0
LWPOLYLINE
  5
A1C
330
1F
100
AcDbEntity
  8
0
 62
     1
100
AcDbPolyline
 90
        8
 70
     1
 43
0.0
 10
3129.784126902471
 20
6138.648169562234
 10
3073.534126902471
 20
6138.648169562234
 42
0.4142135623730951
 10
3067.284126902471
 20
6132.398169562233
 10
3067.284126902471
 20
6057.398169562233
 42
0.4142135623730951
 10
3073.534126902471
 20
6051.148169562234
 10
3129.784126902471
 20
6051.148169562234
 42
0.4142135623730951
 10
3136.034126902471
 20
6057.398169562233
 10
3136.034126902471
 20
6132.398169562233
 42
0.4142135623730951
  0
LWPOLYLINE
  5
A1D
330
1F
100
AcDbEntity
  8
0
 62
     1
100
AcDbPolyline
 90
        8
 70
     1
 43
0.0
 10
3129.784126902471
 20
6134.898169562234
 10
3073.534126902471
 20
6134.898169562234
 42
0.4142135623730951
 10
3071.034126902472
 20
6132.398169562233
 10
3071.034126902472
 20
6057.398169562233
 42
0.4142135623730951
 10
3073.534126902471
 20
6054.898169562233
 10
3129.784126902471
 20
6054.898169562233
 42
0.4142135623730951
 10
3132.284126902471
 20
6057.398169562233
 10
3132.284126902471
 20
6132.398169562233
 42
0.4142135623730951
  0
ARC
  5
A1E
330
1F
100
AcDbEntity
  8
0
 62
     1
100
AcDbCircle
 10
3091.659126902471
 20
6064.898169562233
 30
0.0
 40
3.75
100
AcDbArc
 50
270.0
 51
0.0
  0
LINE
  5
A1F
330
1F
100
AcDbEntity
  8
0
 62
     1
100
AcDbLine
 10
3080.409126902472
 20
6061.148169562233
 30
0.0
 11
3091.659126902471
 21
6061.148169562233
 31
0.0
  0
LINE
  5
A20
330
1F
100
AcDbEntity
  8
0
 62
     1
100
AcDbLine
 10
3095.409126902471
 20
6094.898169562234
 30
0.0
 11
3095.409126902471
 21
6064.898169562233
 31
0.0
  0
ARC
  5
A21
330
1F
100
AcDbEntity
  8
0
 62
     1
100
AcDbCircle
 10
3091.659126902471
 20
6094.898169562234
 30
0.0
 40
3.75
100
AcDbArc
 50
0.0
 51
90.0
  0
LINE
  5
A22
330
1F
100
AcDbEntity
  8
0
 62
     1
100
AcDbLine
 10
3080.409126902472
 20
6098.648169562233
 30
0.0
 11
3091.659126902471
 21
6098.648169562233
 31
0.0
  0
ARC
  5
A23
330
1F
100
AcDbEntity
  8
0
 62
     1
100
AcDbCircle
 10
3080.409126902472
 20
6094.898169562234
 30
0.0
 40
3.75
100
AcDbArc
 50
90.0
 51
180.0
  0
LINE
  5
A24
330
1F
100
AcDbEntity
  8
0
 62
     1
100
AcDbLine
 10
3076.659126902471
 20
6094.898169562234
 30
0.0
 11
3076.659126902471
 21
6064.898169562233
 31
0.0
  0
ARC
  5
A25
330
1F
100
AcDbEntity
  8
0
 62
     1
100
AcDbCircle
 10
3080.409126902472
 20
6064.898169562233
 30
0.0
 40
3.75
100
AcDbArc
 50
180.0
 51
270.0
  0
LINE
  5
A26
330
1F
100
AcDbEntity
  8
0
 62
     1
100
AcDbLine
 10
3091.659126902475
 20
6092.398169562233
 30
0.0
 11
3080.409126902475
 21
6092.398169562233
 31
0.0
  0
LINE
  5
A27
330
1F
100
AcDbEntity
  8
0
 62
     1
100
AcDbLine
 10
3091.659126902475
 20
6086.148169562233
 30
0.0
 11
3080.409126902475
 21
6086.148169562233
 31
0.0
  0
LINE
  5
A28
330
1F
100
AcDbEntity
  8
0
 62
     1
100
AcDbLine
 10
3091.659126902471
 20
6079.898169562233
 30
0.0
 11
3080.409126902472
 21
6079.898169562233
 31
0.0
  0
LINE
  5
A29
330
1F
100
AcDbEntity
  8
0
 62
     1
100
AcDbLine
 10
3091.659126902471
 20
6073.648169562233
 30
0.0
 11
3080.409126902472
 21
6073.648169562233
 31
0.0
  0
LINE
  5
A2A
330
1F
100
AcDbEntity
  8
0
 62
     1
100
AcDbLine
 10
3091.659126902471
 20
6067.398169562233
 30
0.0
 11
3080.409126902472
 21
6067.398169562233
 31
0.0
  0
ARC
  5
A2B
330
1F
100
AcDbEntity
  8
0
 62
     1
100
AcDbCircle
 10
3122.909126902471
 20
6064.898169562233
 30
0.0
 40
3.75
100
AcDbArc
 50
270.0
 51
0.0
  0
LINE
  5
A2C
330
1F
100
AcDbEntity
  8
0
 62
     1
100
AcDbLine
 10
3126.659126902471
 20
6094.898169562234
 30
0.0
 11
3126.659126902471
 21
6064.898169562233
 31
0.0
  0
ARC
  5
A2D
330
1F
100
AcDbEntity
  8
0
 62
     1
100
AcDbCircle
 10
3122.909126902471
 20
6094.898169562234
 30
0.0
 40
3.75
100
AcDbArc
 50
0.0
 51
90.0
  0
LINE
  5
A2E
330
1F
100
AcDbEntity
  8
0
 62
     1
100
AcDbLine
 10
3122.909126902471
 20
6098.648169562233
 30
0.0
 11
3111.659126902472
 21
6098.648169562233
 31
0.0
  0
ARC
  5
A2F
330
1F
100
AcDbEntity
  8
0
 62
     1
100
AcDbCircle
 10
3111.659126902472
 20
6094.898169562234
 30
0.0
 40
3.75
100
AcDbArc
 50
90.0
 51
180.0
  0
LINE
  5
A30
330
1F
100
AcDbEntity
  8
0
 62
     1
100
AcDbLine
 10
3107.909126902471
 20
6094.898169562234
 30
0.0
 11
3107.909126902471
 21
6064.898169562233
 31
0.0
  0
LINE
  5
A31
330
1F
100
AcDbEntity
  8
0
 62
     1
100
AcDbLine
 10
3122.909126902471
 20
6061.148169562233
 30
0.0
 11
3111.659126902472
 21
6061.148169562233
 31
0.0
  0
ARC
  5
A32
330
1F
100
AcDbEntity
  8
0
 62
     1
100
AcDbCircle
 10
3111.659126902472
 20
6064.898169562233
 30
0.0
 40
3.75
100
AcDbArc
 50
180.0
 51
270.0
  0
LINE
  5
A33
330
1F
100
AcDbEntity
  8
0
 62
     1
100
AcDbLine
 10
3122.909126902471
 20
6067.398169562233
 30
0.0
 11
3111.659126902472
 21
6067.398169562233
 31
0.0
  0
LINE
  5
A34
330
1F
100
AcDbEntity
  8
0
 62
     1
100
AcDbLine
 10
3122.909126902471
 20
6073.648169562233
 30
0.0
 11
3111.659126902472
 21
6073.648169562233
 31
0.0
  0
LINE
  5
A35
330
1F
100
AcDbEntity
  8
0
 62
     1
100
AcDbLine
 10
3122.909126902471
 20
6079.898169562233
 30
0.0
 11
3111.659126902472
 21
6079.898169562233
 31
0.0
  0
LINE
  5
A36
330
1F
100
AcDbEntity
  8
0
 62
     1
100
AcDbLine
 10
3122.909126902475
 20
6086.148169562233
 30
0.0
 11
3111.659126902475
 21
6086.148169562233
 31
0.0
  0
LINE
  5
A37
330
1F
100
AcDbEntity
  8
0
 62
     1
100
AcDbLine
 10
3122.909126902475
 20
6092.398169562233
 30
0.0
 11
3111.659126902475
 21
6092.398169562233
 31
0.0
  0
CIRCLE
  5
A38
330
1F
100
AcDbEntity
  8
0
 62
     1
100
AcDbCircle
 10
3101.659126902471
 20
6120.603888998275
 30
0.0
 40
10.0
  0
LWPOLYLINE
  5
A39
330
1F
100
AcDbEntity
  8
0
 62
     1
100
AcDbPolyline
 90
        8
 70
     1
 43
0.0
 10
3019.0335425453
 20
6138.648169562234
 10
2962.783542545301
 20
6138.648169562234
 42
0.4142135623730951
 10
2956.533542545301
 20
6132.398169562233
 10
2956.533542545301
 20
6057.398169562233
 42
0.4142135623730951
 10
2962.783542545301
 20
6051.148169562234
 10
3019.0335425453
 20
6051.148169562234
 42
0.4142135623730951
 10
3025.283542545301
 20
6057.398169562233
 10
3025.283542545301
 20
6132.398169562233
 42
0.4142135623730951
  0
CIRCLE
  5
A3A
330
1F
100
AcDbEntity
  8
0
 62
     1
100
AcDbCircle
 10
2990.9085425453
 20
6120.603888998275
 30
0.0
 40
10.0
  0
LINE
  5
A3B
330
1F
100
AcDbEntity
  8
0
 62
     1
100
AcDbLine
 10
3012.158542545304
 20
6092.398169562233
 30
0.0
 11
3000.908542545304
 21
6092.398169562233
 31
0.0
  0
LINE
  5
A3C
330
1F
100
AcDbEntity
  8
0
 62
     1
100
AcDbLine
 10
3012.158542545304
 20
6086.148169562233
 30
0.0
 11
3000.908542545304
 21
6086.148169562233
 31
0.0
  0
LINE
  5
A3D
330
1F
100
AcDbEntity
  8
0
 62
     1
100
AcDbLine
 10
3012.158542545301
 20
6079.898169562233
 30
0.0
 11
3000.908542545301
 21
6079.898169562233
 31
0.0
  0
LINE
  5
A3E
330
1F
100
AcDbEntity
  8
0
 62
     1
100
AcDbLine
 10
3012.158542545301
 20
6073.648169562233
 30
0.0
 11
3000.908542545301
 21
6073.648169562233
 31
0.0
  0
LINE
  5
A3F
330
1F
100
AcDbEntity
  8
0
 62
     1
100
AcDbLine
 10
3012.158542545301
 20
6067.398169562233
 30
0.0
 11
3000.908542545301
 21
6067.398169562233
 31
0.0
  0
ARC
  5
A40
330
1F
100
AcDbEntity
  8
0
 62
     1
100
AcDbCircle
 10
3000.908542545301
 20
6064.898169562233
 30
0.0
 40
3.75
100
AcDbArc
 50
180.0
 51
270.0
  0
LINE
  5
A41
330
1F
100
AcDbEntity
  8
0
 62
     1
100
AcDbLine
 10
3012.158542545301
 20
6061.148169562233
 30
0.0
 11
3000.908542545301
 21
6061.148169562233
 31
0.0
  0
LINE
  5
A42
330
1F
100
AcDbEntity
  8
0
 62
     1
100
AcDbLine
 10
2997.1585425453
 20
6094.898169562234
 30
0.0
 11
2997.1585425453
 21
6064.898169562233
 31
0.0
  0
ARC
  5
A43
330
1F
100
AcDbEntity
  8
0
 62
     1
100
AcDbCircle
 10
3000.908542545301
 20
6094.898169562234
 30
0.0
 40
3.75
100
AcDbArc
 50
90.0
 51
180.0
  0
LINE
  5
A44
330
1F
100
AcDbEntity
  8
0
 62
     1
100
AcDbLine
 10
3012.158542545301
 20
6098.648169562233
 30
0.0
 11
3000.908542545301
 21
6098.648169562233
 31
0.0
  0
ARC
  5
A45
330
1F
100
AcDbEntity
  8
0
 62
     1
100
AcDbCircle
 10
3012.158542545301
 20
6094.898169562234
 30
0.0
 40
3.75
100
AcDbArc
 50
0.0
 51
90.0
  0
LINE
  5
A46
330
1F
100
AcDbEntity
  8
0
 62
     1
100
AcDbLine
 10
3015.908542545301
 20
6094.898169562234
 30
0.0
 11
3015.908542545301
 21
6064.898169562233
 31
0.0
  0
ARC
  5
A47
330
1F
100
AcDbEntity
  8
0
 62
     1
100
AcDbCircle
 10
3012.158542545301
 20
6064.898169562233
 30
0.0
 40
3.75
100
AcDbArc
 50
270.0
 51
0.0
  0
LINE
  5
A48
330
1F
100
AcDbEntity
  8
0
 62
     1
100
AcDbLine
 10
2980.9085425453
 20
6067.398169562233
 30
0.0
 11
2969.658542545301
 21
6067.398169562233
 31
0.0
  0
LINE
  5
A49
330
1F
100
AcDbEntity
  8
0
 62
     1
100
AcDbLine
 10
2980.9085425453
 20
6073.648169562233
 30
0.0
 11
2969.658542545301
 21
6073.648169562233
 31
0.0
  0
LINE
  5
A4A
330
1F
100
AcDbEntity
  8
0
 62
     1
100
AcDbLine
 10
2980.9085425453
 20
6079.898169562233
 30
0.0
 11
2969.658542545301
 21
6079.898169562233
 31
0.0
  0
LINE
  5
A4B
330
1F
100
AcDbEntity
  8
0
 62
     1
100
AcDbLine
 10
2980.908542545304
 20
6086.148169562233
 30
0.0
 11
2969.658542545304
 21
6086.148169562233
 31
0.0
  0
LINE
  5
A4C
330
1F
100
AcDbEntity
  8
0
 62
     1
100
AcDbLine
 10
2980.908542545304
 20
6092.398169562233
 30
0.0
 11
2969.658542545304
 21
6092.398169562233
 31
0.0
  0
ARC
  5
A4D
330
1F
100
AcDbEntity
  8
0
 62
     1
100
AcDbCircle
 10
2969.658542545301
 20
6064.898169562233
 30
0.0
 40
3.75
100
AcDbArc
 50
180.0
 51
270.0
  0
LINE
  5
A4E
330
1F
100
AcDbEntity
  8
0
 62
     1
100
AcDbLine
 10
2965.9085425453
 20
6094.898169562234
 30
0.0
 11
2965.9085425453
 21
6064.898169562233
 31
0.0
  0
ARC
  5
A4F
330
1F
100
AcDbEntity
  8
0
 62
     1
100
AcDbCircle
 10
2969.658542545301
 20
6094.898169562234
 30
0.0
 40
3.75
100
AcDbArc
 50
90.0
 51
180.0
  0
LINE
  5
A50
330
1F
100
AcDbEntity
  8
0
 62
     1
100
AcDbLine
 10
2969.658542545301
 20
6098.648169562233
 30
0.0
 11
2980.9085425453
 21
6098.648169562233
 31
0.0
  0
ARC
  5
A51
330
1F
100
AcDbEntity
  8
0
 62
     1
100
AcDbCircle
 10
2980.9085425453
 20
6094.898169562234
 30
0.0
 40
3.75
100
AcDbArc
 50
0.0
 51
90.0
  0
LINE
  5
A52
330
1F
100
AcDbEntity
  8
0
 62
     1
100
AcDbLine
 10
2984.658542545301
 20
6094.898169562234
 30
0.0
 11
2984.658542545301
 21
6064.898169562233
 31
0.0
  0
LINE
  5
A53
330
1F
100
AcDbEntity
  8
0
 62
     1
100
AcDbLine
 10
2969.658542545301
 20
6061.148169562233
 30
0.0
 11
2980.9085425453
 21
6061.148169562233
 31
0.0
  0
ARC
  5
A54
330
1F
100
AcDbEntity
  8
0
 62
     1
100
AcDbCircle
 10
2980.9085425453
 20
6064.898169562233
 30
0.0
 40
3.75
100
AcDbArc
 50
270.0
 51
0.0
  0
LWPOLYLINE
  5
A55
330
1F
100
AcDbEntity
  8
0
 62
     1
100
AcDbPolyline
 90
        8
 70
     1
 43
0.0
 10
3019.0335425453
 20
6134.898169562234
 10
2962.783542545301
 20
6134.898169562234
 42
0.4142135623730951
 10
2960.283542545301
 20
6132.398169562233
 10
2960.283542545301
 20
6057.398169562233
 42
0.4142135623730951
 10
2962.783542545301
 20
6054.898169562233
 10
3019.0335425453
 20
6054.898169562233
 42
0.4142135623730951
 10
3021.533542545301
 20
6057.398169562233
 10
3021.533542545301
 20
6132.398169562233
 42
0.4142135623730951
  0
CIRCLE
  5
A56
330
1F
100
AcDbEntity
  8
0
 62
     1
100
AcDbCircle
 10
2879.05597103088
 20
6120.603888998275
 30
0.0
 40
10.0
  0
LINE
  5
A57
330
1F
100
AcDbEntity
  8
0
 62
     1
100
AcDbLine
 10
2900.305971030883
 20
6092.398169562233
 30
0.0
 11
2889.055971030884
 21
6092.398169562233
 31
0.0
  0
LINE
  5
A58
330
1F
100
AcDbEntity
  8
0
 62
     1
100
AcDbLine
 10
2900.305971030883
 20
6086.148169562233
 30
0.0
 11
2889.055971030884
 21
6086.148169562233
 31
0.0
  0
LINE
  5
A59
330
1F
100
AcDbEntity
  8
0
 62
     1
100
AcDbLine
 10
2900.30597103088
 20
6079.898169562233
 30
0.0
 11
2889.05597103088
 21
6079.898169562233
 31
0.0
  0
LINE
  5
A5A
330
1F
100
AcDbEntity
  8
0
 62
     1
100
AcDbLine
 10
2900.30597103088
 20
6073.648169562233
 30
0.0
 11
2889.05597103088
 21
6073.648169562233
 31
0.0
  0
LINE
  5
A5B
330
1F
100
AcDbEntity
  8
0
 62
     1
100
AcDbLine
 10
2900.30597103088
 20
6067.398169562233
 30
0.0
 11
2889.05597103088
 21
6067.398169562233
 31
0.0
  0
ARC
  5
A5C
330
1F
100
AcDbEntity
  8
0
 62
     1
100
AcDbCircle
 10
2889.05597103088
 20
6064.898169562233
 30
0.0
 40
3.75
100
AcDbArc
 50
180.0
 51
270.0
  0
LINE
  5
A5D
330
1F
100
AcDbEntity
  8
0
 62
     1
100
AcDbLine
 10
2900.30597103088
 20
6061.148169562233
 30
0.0
 11
2889.05597103088
 21
6061.148169562233
 31
0.0
  0
LINE
  5
A5E
330
1F
100
AcDbEntity
  8
0
 62
     1
100
AcDbLine
 10
2885.30597103088
 20
6094.898169562234
 30
0.0
 11
2885.30597103088
 21
6064.898169562233
 31
0.0
  0
ARC
  5
A5F
330
1F
100
AcDbEntity
  8
0
 62
     1
100
AcDbCircle
 10
2889.05597103088
 20
6094.898169562234
 30
0.0
 40
3.75
100
AcDbArc
 50
90.0
 51
180.0
  0
LINE
  5
A60
330
1F
100
AcDbEntity
  8
0
 62
     1
100
AcDbLine
 10
2900.30597103088
 20
6098.648169562233
 30
0.0
 11
2889.05597103088
 21
6098.648169562233
 31
0.0
  0
ARC
  5
A61
330
1F
100
AcDbEntity
  8
0
 62
     1
100
AcDbCircle
 10
2900.30597103088
 20
6094.898169562234
 30
0.0
 40
3.75
100
AcDbArc
 50
0.0
 51
90.0
  0
LINE
  5
A62
330
1F
100
AcDbEntity
  8
0
 62
     1
100
AcDbLine
 10
2904.05597103088
 20
6094.898169562234
 30
0.0
 11
2904.05597103088
 21
6064.898169562233
 31
0.0
  0
ARC
  5
A63
330
1F
100
AcDbEntity
  8
0
 62
     1
100
AcDbCircle
 10
2900.30597103088
 20
6064.898169562233
 30
0.0
 40
3.75
100
AcDbArc
 50
270.0
 51
0.0
  0
LINE
  5
A64
330
1F
100
AcDbEntity
  8
0
 62
     1
100
AcDbLine
 10
2869.05597103088
 20
6067.398169562233
 30
0.0
 11
2857.80597103088
 21
6067.398169562233
 31
0.0
  0
LINE
  5
A65
330
1F
100
AcDbEntity
  8
0
 62
     1
100
AcDbLine
 10
2869.05597103088
 20
6073.648169562233
 30
0.0
 11
2857.80597103088
 21
6073.648169562233
 31
0.0
  0
LINE
  5
A66
330
1F
100
AcDbEntity
  8
0
 62
     1
100
AcDbLine
 10
2869.05597103088
 20
6079.898169562233
 30
0.0
 11
2857.80597103088
 21
6079.898169562233
 31
0.0
  0
LINE
  5
A67
330
1F
100
AcDbEntity
  8
0
 62
     1
100
AcDbLine
 10
2869.055971030883
 20
6086.148169562233
 30
0.0
 11
2857.805971030884
 21
6086.148169562233
 31
0.0
  0
LINE
  5
A68
330
1F
100
AcDbEntity
  8
0
 62
     1
100
AcDbLine
 10
2869.055971030883
 20
6092.398169562233
 30
0.0
 11
2857.805971030884
 21
6092.398169562233
 31
0.0
  0
ARC
  5
A69
330
1F
100
AcDbEntity
  8
0
 62
     1
100
AcDbCircle
 10
2857.80597103088
 20
6064.898169562233
 30
0.0
 40
3.75
100
AcDbArc
 50
180.0
 51
270.0
  0
LINE
  5
A6A
330
1F
100
AcDbEntity
  8
0
 62
     1
100
AcDbLine
 10
2854.05597103088
 20
6094.898169562234
 30
0.0
 11
2854.05597103088
 21
6064.898169562233
 31
0.0
  0
ARC
  5
A6B
330
1F
100
AcDbEntity
  8
0
 62
     1
100
AcDbCircle
 10
2857.80597103088
 20
6094.898169562234
 30
0.0
 40
3.75
100
AcDbArc
 50
90.0
 51
180.0
  0
LINE
  5
A6C
330
1F
100
AcDbEntity
  8
0
 62
     1
100
AcDbLine
 10
2857.80597103088
 20
6098.648169562233
 30
0.0
 11
2869.05597103088
 21
6098.648169562233
 31
0.0
  0
ARC
  5
A6D
330
1F
100
AcDbEntity
  8
0
 62
     1
100
AcDbCircle
 10
2869.05597103088
 20
6094.898169562234
 30
0.0
 40
3.75
100
AcDbArc
 50
0.0
 51
90.0
  0
LINE
  5
A6E
330
1F
100
AcDbEntity
  8
0
 62
     1
100
AcDbLine
 10
2872.80597103088
 20
6094.898169562234
 30
0.0
 11
2872.80597103088
 21
6064.898169562233
 31
0.0
  0
LINE
  5
A6F
330
1F
100
AcDbEntity
  8
0
 62
     1
100
AcDbLine
 10
2857.80597103088
 20
6061.148169562233
 30
0.0
 11
2869.05597103088
 21
6061.148169562233
 31
0.0
  0
ARC
  5
A70
330
1F
100
AcDbEntity
  8
0
 62
     1
100
AcDbCircle
 10
2869.05597103088
 20
6064.898169562233
 30
0.0
 40
3.75
100
AcDbArc
 50
270.0
 51
0.0
  0
LWPOLYLINE
  5
A71
330
1F
100
AcDbEntity
  8
0
 62
     1
100
AcDbPolyline
 90
        8
 70
     1
 43
0.0
 10
2907.18097103088
 20
6134.898169562234
 10
2850.93097103088
 20
6134.898169562234
 42
0.4142135623730951
 10
2848.43097103088
 20
6132.398169562233
 10
2848.43097103088
 20
6057.398169562233
 42
0.4142135623730951
 10
2850.93097103088
 20
6054.898169562233
 10
2907.18097103088
 20
6054.898169562233
 42
0.4142135623730951
 10
2909.68097103088
 20
6057.398169562233
 10
2909.68097103088
 20
6132.398169562233
 42
0.4142135623730951
  0
LWPOLYLINE
  5
A72
330
1F
100
AcDbEntity
  8
0
 62
     1
100
AcDbPolyline
 90
        8
 70
     1
 43
0.0
 10
2907.18097103088
 20
6138.648169562234
 10
2850.93097103088
 20
6138.648169562234
 42
0.4142135623730951
 10
2844.68097103088
 20
6132.398169562233
 10
2844.68097103088
 20
6057.398169562233
 42
0.4142135623730951
 10
2850.93097103088
 20
6051.148169562234
 10
2907.18097103088
 20
6051.148169562234
 42
0.4142135623730951
 10
2913.43097103088
 20
6057.398169562233
 10
2913.43097103088
 20
6132.398169562233
 42
0.4142135623730951
  0
LWPOLYLINE
  5
A73
330
1F
100
AcDbEntity
  8
0
 62
     1
100
AcDbPolyline
 90
        8
 70
     1
 43
0.0
 10
1832.196791098154
 20
6140.038019770354
 10
1775.946791098154
 20
6140.038019770354
 42
0.4142135623730951
 10
1769.696791098154
 20
6133.788019770355
 10
1769.696791098154
 20
6058.788019770354
 42
0.4142135623730951
 10
1775.946791098154
 20
6052.538019770355
 10
1832.196791098154
 20
6052.538019770355
 42
0.4142135623730951
 10
1838.446791098154
 20
6058.788019770354
 10
1838.446791098154
 20
6133.788019770355
 42
0.4142135623730951
  0
LWPOLYLINE
  5
A74
330
1F
100
AcDbEntity
  8
0
 62
     1
100
AcDbPolyline
 90
        8
 70
     1
 43
0.0
 10
1832.196791098154
 20
6136.288019770354
 10
1775.946791098154
 20
6136.288019770354
 42
0.4142135623730951
 10
1773.446791098154
 20
6133.788019770355
 10
1773.446791098154
 20
6058.788019770354
 42
0.4142135623730951
 10
1775.946791098154
 20
6056.288019770354
 10
1832.196791098154
 20
6056.288019770354
 42
0.4142135623730951
 10
1834.696791098154
 20
6058.788019770354
 10
1834.696791098154
 20
6133.788019770355
 42
0.4142135623730951
  0
ARC
  5
A75
330
1F
100
AcDbEntity
  8
0
 62
     1
100
AcDbCircle
 10
1794.071791098154
 20
6066.288019770354
 30
0.0
 40
3.75
100
AcDbArc
 50
270.0
 51
0.0
  0
LINE
  5
A76
330
1F
100
AcDbEntity
  8
0
 62
     1
100
AcDbLine
 10
1782.821791098154
 20
6062.538019770354
 30
0.0
 11
1794.071791098154
 21
6062.538019770354
 31
0.0
  0
LINE
  5
A77
330
1F
100
AcDbEntity
  8
0
 62
     1
100
AcDbLine
 10
1797.821791098154
 20
6096.288019770355
 30
0.0
 11
1797.821791098154
 21
6066.288019770354
 31
0.0
  0
ARC
  5
A78
330
1F
100
AcDbEntity
  8
0
 62
     1
100
AcDbCircle
 10
1794.071791098154
 20
6096.288019770355
 30
0.0
 40
3.75
100
AcDbArc
 50
0.0
 51
90.0
  0
LINE
  5
A79
330
1F
100
AcDbEntity
  8
0
 62
     1
100
AcDbLine
 10
1782.821791098154
 20
6100.038019770354
 30
0.0
 11
1794.071791098154
 21
6100.038019770354
 31
0.0
  0
ARC
  5
A7A
330
1F
100
AcDbEntity
  8
0
 62
     1
100
AcDbCircle
 10
1782.821791098154
 20
6096.288019770355
 30
0.0
 40
3.75
100
AcDbArc
 50
90.0
 51
180.0
  0
LINE
  5
A7B
330
1F
100
AcDbEntity
  8
0
 62
     1
100
AcDbLine
 10
1779.071791098154
 20
6096.288019770355
 30
0.0
 11
1779.071791098154
 21
6066.288019770354
 31
0.0
  0
ARC
  5
A7C
330
1F
100
AcDbEntity
  8
0
 62
     1
100
AcDbCircle
 10
1782.821791098154
 20
6066.288019770354
 30
0.0
 40
3.75
100
AcDbArc
 50
180.0
 51
270.0
  0
LINE
  5
A7D
330
1F
100
AcDbEntity
  8
0
 62
     1
100
AcDbLine
 10
1794.071791098158
 20
6093.788019770354
 30
0.0
 11
1782.821791098158
 21
6093.788019770354
 31
0.0
  0
LINE
  5
A7E
330
1F
100
AcDbEntity
  8
0
 62
     1
100
AcDbLine
 10
1794.071791098158
 20
6087.538019770354
 30
0.0
 11
1782.821791098158
 21
6087.538019770354
 31
0.0
  0
LINE
  5
A7F
330
1F
100
AcDbEntity
  8
0
 62
     1
100
AcDbLine
 10
1794.071791098154
 20
6081.288019770354
 30
0.0
 11
1782.821791098154
 21
6081.288019770354
 31
0.0
  0
LINE
  5
A80
330
1F
100
AcDbEntity
  8
0
 62
     1
100
AcDbLine
 10
1794.071791098154
 20
6075.038019770354
 30
0.0
 11
1782.821791098154
 21
6075.038019770354
 31
0.0
  0
LINE
  5
A81
330
1F
100
AcDbEntity
  8
0
 62
     1
100
AcDbLine
 10
1794.071791098154
 20
6068.788019770354
 30
0.0
 11
1782.821791098154
 21
6068.788019770354
 31
0.0
  0
ARC
  5
A82
330
1F
100
AcDbEntity
  8
0
 62
     1
100
AcDbCircle
 10
1825.321791098154
 20
6066.288019770354
 30
0.0
 40
3.75
100
AcDbArc
 50
270.0
 51
0.0
  0
LINE
  5
A83
330
1F
100
AcDbEntity
  8
0
 62
     1
100
AcDbLine
 10
1829.071791098154
 20
6096.288019770355
 30
0.0
 11
1829.071791098154
 21
6066.288019770354
 31
0.0
  0
ARC
  5
A84
330
1F
100
AcDbEntity
  8
0
 62
     1
100
AcDbCircle
 10
1825.321791098154
 20
6096.288019770355
 30
0.0
 40
3.75
100
AcDbArc
 50
0.0
 51
90.0
  0
LINE
  5
A85
330
1F
100
AcDbEntity
  8
0
 62
     1
100
AcDbLine
 10
1825.321791098154
 20
6100.038019770354
 30
0.0
 11
1814.071791098154
 21
6100.038019770354
 31
0.0
  0
ARC
  5
A86
330
1F
100
AcDbEntity
  8
0
 62
     1
100
AcDbCircle
 10
1814.071791098154
 20
6096.288019770355
 30
0.0
 40
3.75
100
AcDbArc
 50
90.0
 51
180.0
  0
LINE
  5
A87
330
1F
100
AcDbEntity
  8
0
 62
     1
100
AcDbLine
 10
1810.321791098154
 20
6096.288019770355
 30
0.0
 11
1810.321791098154
 21
6066.288019770354
 31
0.0
  0
LINE
  5
A88
330
1F
100
AcDbEntity
  8
0
 62
     1
100
AcDbLine
 10
1825.321791098154
 20
6062.538019770354
 30
0.0
 11
1814.071791098154
 21
6062.538019770354
 31
0.0
  0
ARC
  5
A89
330
1F
100
AcDbEntity
  8
0
 62
     1
100
AcDbCircle
 10
1814.071791098154
 20
6066.288019770354
 30
0.0
 40
3.75
100
AcDbArc
 50
180.0
 51
270.0
  0
LINE
  5
A8A
330
1F
100
AcDbEntity
  8
0
 62
     1
100
AcDbLine
 10
1825.321791098154
 20
6068.788019770354
 30
0.0
 11
1814.071791098154
 21
6068.788019770354
 31
0.0
  0
LINE
  5
A8B
330
1F
100
AcDbEntity
  8
0
 62
     1
100
AcDbLine
 10
1825.321791098154
 20
6075.038019770354
 30
0.0
 11
1814.071791098154
 21
6075.038019770354
 31
0.0
  0
LINE
  5
A8C
330
1F
100
AcDbEntity
  8
0
 62
     1
100
AcDbLine
 10
1825.321791098154
 20
6081.288019770354
 30
0.0
 11
1814.071791098154
 21
6081.288019770354
 31
0.0
  0
LINE
  5
A8D
330
1F
100
AcDbEntity
  8
0
 62
     1
100
AcDbLine
 10
1825.321791098158
 20
6087.538019770354
 30
0.0
 11
1814.071791098158
 21
6087.538019770354
 31
0.0
  0
LINE
  5
A8E
330
1F
100
AcDbEntity
  8
0
 62
     1
100
AcDbLine
 10
1825.321791098158
 20
6093.788019770354
 30
0.0
 11
1814.071791098158
 21
6093.788019770354
 31
0.0
  0
CIRCLE
  5
A8F
330
1F
100
AcDbEntity
  8
0
 62
     1
100
AcDbCircle
 10
1804.071791098154
 20
6121.993739206397
 30
0.0
 40
10.0
  0
CIRCLE
  5
A90
330
1F
100
AcDbEntity
  8
0
 62
     1
100
AcDbCircle
 10
1696.626418164676
 20
6121.993739206397
 30
0.0
 40
10.0
  0
LINE
  5
A91
330
1F
100
AcDbEntity
  8
0
 62
     1
100
AcDbLine
 10
1717.876418164679
 20
6093.788019770354
 30
0.0
 11
1706.626418164679
 21
6093.788019770354
 31
0.0
  0
LINE
  5
A92
330
1F
100
AcDbEntity
  8
0
 62
     1
100
AcDbLine
 10
1717.876418164679
 20
6087.538019770354
 30
0.0
 11
1706.626418164679
 21
6087.538019770354
 31
0.0
  0
LINE
  5
A93
330
1F
100
AcDbEntity
  8
0
 62
     1
100
AcDbLine
 10
1717.876418164676
 20
6081.288019770354
 30
0.0
 11
1706.626418164676
 21
6081.288019770354
 31
0.0
  0
LINE
  5
A94
330
1F
100
AcDbEntity
  8
0
 62
     1
100
AcDbLine
 10
1717.876418164676
 20
6075.038019770354
 30
0.0
 11
1706.626418164676
 21
6075.038019770354
 31
0.0
  0
LINE
  5
A95
330
1F
100
AcDbEntity
  8
0
 62
     1
100
AcDbLine
 10
1717.876418164676
 20
6068.788019770354
 30
0.0
 11
1706.626418164676
 21
6068.788019770354
 31
0.0
  0
ARC
  5
A96
330
1F
100
AcDbEntity
  8
0
 62
     1
100
AcDbCircle
 10
1706.626418164676
 20
6066.288019770354
 30
0.0
 40
3.75
100
AcDbArc
 50
180.0
 51
270.0
  0
LINE
  5
A97
330
1F
100
AcDbEntity
  8
0
 62
     1
100
AcDbLine
 10
1717.876418164676
 20
6062.538019770354
 30
0.0
 11
1706.626418164676
 21
6062.538019770354
 31
0.0
  0
LINE
  5
A98
330
1F
100
AcDbEntity
  8
0
 62
     1
100
AcDbLine
 10
1702.876418164676
 20
6096.288019770355
 30
0.0
 11
1702.876418164676
 21
6066.288019770354
 31
0.0
  0
ARC
  5
A99
330
1F
100
AcDbEntity
  8
0
 62
     1
100
AcDbCircle
 10
1706.626418164676
 20
6096.288019770355
 30
0.0
 40
3.75
100
AcDbArc
 50
90.0
 51
180.0
  0
LINE
  5
A9A
330
1F
100
AcDbEntity
  8
0
 62
     1
100
AcDbLine
 10
1717.876418164676
 20
6100.038019770354
 30
0.0
 11
1706.626418164676
 21
6100.038019770354
 31
0.0
  0
ARC
  5
A9B
330
1F
100
AcDbEntity
  8
0
 62
     1
100
AcDbCircle
 10
1717.876418164676
 20
6096.288019770355
 30
0.0
 40
3.75
100
AcDbArc
 50
0.0
 51
90.0
  0
LINE
  5
A9C
330
1F
100
AcDbEntity
  8
0
 62
     1
100
AcDbLine
 10
1721.626418164676
 20
6096.288019770355
 30
0.0
 11
1721.626418164676
 21
6066.288019770354
 31
0.0
  0
ARC
  5
A9D
330
1F
100
AcDbEntity
  8
0
 62
     1
100
AcDbCircle
 10
1717.876418164676
 20
6066.288019770354
 30
0.0
 40
3.75
100
AcDbArc
 50
270.0
 51
0.0
  0
LINE
  5
A9E
330
1F
100
AcDbEntity
  8
0
 62
     1
100
AcDbLine
 10
1686.626418164676
 20
6068.788019770354
 30
0.0
 11
1675.376418164676
 21
6068.788019770354
 31
0.0
  0
LINE
  5
A9F
330
1F
100
AcDbEntity
  8
0
 62
     1
100
AcDbLine
 10
1686.626418164676
 20
6075.038019770354
 30
0.0
 11
1675.376418164676
 21
6075.038019770354
 31
0.0
  0
LINE
  5
AA0
330
1F
100
AcDbEntity
  8
0
 62
     1
100
AcDbLine
 10
1686.626418164676
 20
6081.288019770354
 30
0.0
 11
1675.376418164676
 21
6081.288019770354
 31
0.0
  0
LINE
  5
AA1
330
1F
100
AcDbEntity
  8
0
 62
     1
100
AcDbLine
 10
1686.626418164679
 20
6087.538019770354
 30
0.0
 11
1675.376418164679
 21
6087.538019770354
 31
0.0
  0
LINE
  5
AA2
330
1F
100
AcDbEntity
  8
0
 62
     1
100
AcDbLine
 10
1686.626418164679
 20
6093.788019770354
 30
0.0
 11
1675.376418164679
 21
6093.788019770354
 31
0.0
  0
ARC
  5
AA3
330
1F
100
AcDbEntity
  8
0
 62
     1
100
AcDbCircle
 10
1675.376418164676
 20
6066.288019770354
 30
0.0
 40
3.75
100
AcDbArc
 50
180.0
 51
270.0
  0
LINE
  5
AA4
330
1F
100
AcDbEntity
  8
0
 62
     1
100
AcDbLine
 10
1671.626418164676
 20
6096.288019770355
 30
0.0
 11
1671.626418164676
 21
6066.288019770354
 31
0.0
  0
ARC
  5
AA5
330
1F
100
AcDbEntity
  8
0
 62
     1
100
AcDbCircle
 10
1675.376418164676
 20
6096.288019770355
 30
0.0
 40
3.75
100
AcDbArc
 50
90.0
 51
180.0
  0
LINE
  5
AA6
330
1F
100
AcDbEntity
  8
0
 62
     1
100
AcDbLine
 10
1675.376418164676
 20
6100.038019770354
 30
0.0
 11
1686.626418164676
 21
6100.038019770354
 31
0.0
  0
ARC
  5
AA7
330
1F
100
AcDbEntity
  8
0
 62
     1
100
AcDbCircle
 10
1686.626418164676
 20
6096.288019770355
 30
0.0
 40
3.75
100
AcDbArc
 50
0.0
 51
90.0
  0
LINE
  5
AA8
330
1F
100
AcDbEntity
  8
0
 62
     1
100
AcDbLine
 10
1690.376418164676
 20
6096.288019770355
 30
0.0
 11
1690.376418164676
 21
6066.288019770354
 31
0.0
  0
LINE
  5
AA9
330
1F
100
AcDbEntity
  8
0
 62
     1
100
AcDbLine
 10
1675.376418164676
 20
6062.538019770354
 30
0.0
 11
1686.626418164676
 21
6062.538019770354
 31
0.0
  0
ARC
  5
AAA
330
1F
100
AcDbEntity
  8
0
 62
     1
100
AcDbCircle
 10
1686.626418164676
 20
6066.288019770354
 30
0.0
 40
3.75
100
AcDbArc
 50
270.0
 51
0.0
  0
LWPOLYLINE
  5
AAB
330
1F
100
AcDbEntity
  8
0
 62
     1
100
AcDbPolyline
 90
        8
 70
     1
 43
0.0
 10
1724.751418164676
 20
6136.288019770354
 10
1668.501418164676
 20
6136.288019770354
 42
0.4142135623730951
 10
1666.001418164676
 20
6133.788019770355
 10
1666.001418164676
 20
6058.788019770354
 42
0.4142135623730951
 10
1668.501418164676
 20
6056.288019770354
 10
1724.751418164676
 20
6056.288019770354
 42
0.4142135623730951
 10
1727.251418164676
 20
6058.788019770354
 10
1727.251418164676
 20
6133.788019770355
 42
0.4142135623730951
  0
LWPOLYLINE
  5
AAC
330
1F
100
AcDbEntity
  8
0
 62
     1
100
AcDbPolyline
 90
        8
 70
     1
 43
0.0
 10
1724.751418164676
 20
6140.038019770354
 10
1668.501418164676
 20
6140.038019770354
 42
0.4142135623730951
 10
1662.251418164676
 20
6133.788019770355
 10
1662.251418164676
 20
6058.788019770354
 42
0.4142135623730951
 10
1668.501418164676
 20
6052.538019770355
 10
1724.751418164676
 20
6052.538019770355
 42
0.4142135623730951
 10
1731.001418164676
 20
6058.788019770354
 10
1731.001418164676
 20
6133.788019770355
 42
0.4142135623730951
  0
LWPOLYLINE
  5
AAD
330
1F
100
AcDbEntity
  8
0
 62
     1
100
AcDbPolyline
 90
        8
 70
     1
 43
0.0
 10
1614.000833807505
 20
6136.288019770354
 10
1557.750833807505
 20
6136.288019770354
 42
0.4142135623730951
 10
1555.250833807505
 20
6133.788019770355
 10
1555.250833807505
 20
6058.788019770354
 42
0.4142135623730951
 10
1557.750833807505
 20
6056.288019770354
 10
1614.000833807505
 20
6056.288019770354
 42
0.4142135623730951
 10
1616.500833807505
 20
6058.788019770354
 10
1616.500833807505
 20
6133.788019770355
 42
0.4142135623730951
  0
ARC
  5
AAE
330
1F
100
AcDbEntity
  8
0
 62
     1
100
AcDbCircle
 10
1575.875833807505
 20
6066.288019770354
 30
0.0
 40
3.75
100
AcDbArc
 50
270.0
 51
0.0
  0
LINE
  5
AAF
330
1F
100
AcDbEntity
  8
0
 62
     1
100
AcDbLine
 10
1564.625833807505
 20
6062.538019770354
 30
0.0
 11
1575.875833807505
 21
6062.538019770354
 31
0.0
  0
LINE
  5
AB0
330
1F
100
AcDbEntity
  8
0
 62
     1
100
AcDbLine
 10
1579.625833807505
 20
6096.288019770355
 30
0.0
 11
1579.625833807505
 21
6066.288019770354
 31
0.0
  0
ARC
  5
AB1
330
1F
100
AcDbEntity
  8
0
 62
     1
100
AcDbCircle
 10
1575.875833807505
 20
6096.288019770355
 30
0.0
 40
3.75
100
AcDbArc
 50
0.0
 51
90.0
  0
LINE
  5
AB2
330
1F
100
AcDbEntity
  8
0
 62
     1
100
AcDbLine
 10
1564.625833807505
 20
6100.038019770354
 30
0.0
 11
1575.875833807505
 21
6100.038019770354
 31
0.0
  0
ARC
  5
AB3
330
1F
100
AcDbEntity
  8
0
 62
     1
100
AcDbCircle
 10
1564.625833807505
 20
6096.288019770355
 30
0.0
 40
3.75
100
AcDbArc
 50
90.0
 51
180.0
  0
LINE
  5
AB4
330
1F
100
AcDbEntity
  8
0
 62
     1
100
AcDbLine
 10
1560.875833807505
 20
6096.288019770355
 30
0.0
 11
1560.875833807505
 21
6066.288019770354
 31
0.0
  0
ARC
  5
AB5
330
1F
100
AcDbEntity
  8
0
 62
     1
100
AcDbCircle
 10
1564.625833807505
 20
6066.288019770354
 30
0.0
 40
3.75
100
AcDbArc
 50
180.0
 51
270.0
  0
LINE
  5
AB6
330
1F
100
AcDbEntity
  8
0
 62
     1
100
AcDbLine
 10
1575.875833807509
 20
6093.788019770354
 30
0.0
 11
1564.625833807508
 21
6093.788019770354
 31
0.0
  0
LINE
  5
AB7
330
1F
100
AcDbEntity
  8
0
 62
     1
100
AcDbLine
 10
1575.875833807509
 20
6087.538019770354
 30
0.0
 11
1564.625833807508
 21
6087.538019770354
 31
0.0
  0
LINE
  5
AB8
330
1F
100
AcDbEntity
  8
0
 62
     1
100
AcDbLine
 10
1575.875833807505
 20
6081.288019770354
 30
0.0
 11
1564.625833807505
 21
6081.288019770354
 31
0.0
  0
LINE
  5
AB9
330
1F
100
AcDbEntity
  8
0
 62
     1
100
AcDbLine
 10
1575.875833807505
 20
6075.038019770354
 30
0.0
 11
1564.625833807505
 21
6075.038019770354
 31
0.0
  0
LINE
  5
ABA
330
1F
100
AcDbEntity
  8
0
 62
     1
100
AcDbLine
 10
1575.875833807505
 20
6068.788019770354
 30
0.0
 11
1564.625833807505
 21
6068.788019770354
 31
0.0
  0
ARC
  5
ABB
330
1F
100
AcDbEntity
  8
0
 62
     1
100
AcDbCircle
 10
1607.125833807505
 20
6066.288019770354
 30
0.0
 40
3.75
100
AcDbArc
 50
270.0
 51
0.0
  0
LINE
  5
ABC
330
1F
100
AcDbEntity
  8
0
 62
     1
100
AcDbLine
 10
1610.875833807505
 20
6096.288019770355
 30
0.0
 11
1610.875833807505
 21
6066.288019770354
 31
0.0
  0
ARC
  5
ABD
330
1F
100
AcDbEntity
  8
0
 62
     1
100
AcDbCircle
 10
1607.125833807505
 20
6096.288019770355
 30
0.0
 40
3.75
100
AcDbArc
 50
0.0
 51
90.0
  0
LINE
  5
ABE
330
1F
100
AcDbEntity
  8
0
 62
     1
100
AcDbLine
 10
1607.125833807505
 20
6100.038019770354
 30
0.0
 11
1595.875833807505
 21
6100.038019770354
 31
0.0
  0
ARC
  5
ABF
330
1F
100
AcDbEntity
  8
0
 62
     1
100
AcDbCircle
 10
1595.875833807505
 20
6096.288019770355
 30
0.0
 40
3.75
100
AcDbArc
 50
90.0
 51
180.0
  0
LINE
  5
AC0
330
1F
100
AcDbEntity
  8
0
 62
     1
100
AcDbLine
 10
1592.125833807505
 20
6096.288019770355
 30
0.0
 11
1592.125833807505
 21
6066.288019770354
 31
0.0
  0
LINE
  5
AC1
330
1F
100
AcDbEntity
  8
0
 62
     1
100
AcDbLine
 10
1607.125833807505
 20
6062.538019770354
 30
0.0
 11
1595.875833807505
 21
6062.538019770354
 31
0.0
  0
ARC
  5
AC2
330
1F
100
AcDbEntity
  8
0
 62
     1
100
AcDbCircle
 10
1595.875833807505
 20
6066.288019770354
 30
0.0
 40
3.75
100
AcDbArc
 50
180.0
 51
270.0
  0
LINE
  5
AC3
330
1F
100
AcDbEntity
  8
0
 62
     1
100
AcDbLine
 10
1607.125833807505
 20
6068.788019770354
 30
0.0
 11
1595.875833807505
 21
6068.788019770354
 31
0.0
  0
LINE
  5
AC4
330
1F
100
AcDbEntity
  8
0
 62
     1
100
AcDbLine
 10
1607.125833807505
 20
6075.038019770354
 30
0.0
 11
1595.875833807505
 21
6075.038019770354
 31
0.0
  0
LINE
  5
AC5
330
1F
100
AcDbEntity
  8
0
 62
     1
100
AcDbLine
 10
1607.125833807505
 20
6081.288019770354
 30
0.0
 11
1595.875833807505
 21
6081.288019770354
 31
0.0
  0
LINE
  5
AC6
330
1F
100
AcDbEntity
  8
0
 62
     1
100
AcDbLine
 10
1607.125833807509
 20
6087.538019770354
 30
0.0
 11
1595.875833807508
 21
6087.538019770354
 31
0.0
  0
LINE
  5
AC7
330
1F
100
AcDbEntity
  8
0
 62
     1
100
AcDbLine
 10
1607.125833807509
 20
6093.788019770354
 30
0.0
 11
1595.875833807508
 21
6093.788019770354
 31
0.0
  0
CIRCLE
  5
AC8
330
1F
100
AcDbEntity
  8
0
 62
     1
100
AcDbCircle
 10
1585.875833807505
 20
6121.993739206397
 30
0.0
 40
10.0
  0
LWPOLYLINE
  5
AC9
330
1F
100
AcDbEntity
  8
0
 62
     1
100
AcDbPolyline
 90
        8
 70
     1
 43
0.0
 10
1614.000833807505
 20
6140.038019770354
 10
1557.750833807505
 20
6140.038019770354
 42
0.4142135623730951
 10
1551.500833807505
 20
6133.788019770355
 10
1551.500833807505
 20
6058.788019770354
 42
0.4142135623730951
 10
1557.750833807505
 20
6052.538019770355
 10
1614.000833807505
 20
6052.538019770355
 42
0.4142135623730951
 10
1620.250833807505
 20
6058.788019770354
 10
1620.250833807505
 20
6133.788019770355
 42
0.4142135623730951
  0
LWPOLYLINE
  5
ACA
330
1F
100
AcDbEntity
  8
0
 62
     1
100
AcDbPolyline
 90
        8
 70
     1
 43
0.0
 10
1502.148262293085
 20
6140.038019770354
 10
1445.898262293084
 20
6140.038019770354
 42
0.4142135623730951
 10
1439.648262293085
 20
6133.788019770355
 10
1439.648262293085
 20
6058.788019770354
 42
0.4142135623730951
 10
1445.898262293084
 20
6052.538019770355
 10
1502.148262293085
 20
6052.538019770355
 42
0.4142135623730951
 10
1508.398262293084
 20
6058.788019770354
 10
1508.398262293084
 20
6133.788019770355
 42
0.4142135623730951
  0
LWPOLYLINE
  5
ACB
330
1F
100
AcDbEntity
  8
0
 62
     1
100
AcDbPolyline
 90
        8
 70
     1
 43
0.0
 10
1502.148262293085
 20
6136.288019770354
 10
1445.898262293084
 20
6136.288019770354
 42
0.4142135623730951
 10
1443.398262293085
 20
6133.788019770355
 10
1443.398262293085
 20
6058.788019770354
 42
0.4142135623730951
 10
1445.898262293084
 20
6056.288019770354
 10
1502.148262293085
 20
6056.288019770354
 42
0.4142135623730951
 10
1504.648262293084
 20
6058.788019770354
 10
1504.648262293084
 20
6133.788019770355
 42
0.4142135623730951
  0
ARC
  5
ACC
330
1F
100
AcDbEntity
  8
0
 62
     1
100
AcDbCircle
 10
1464.023262293084
 20
6066.288019770354
 30
0.0
 40
3.75
100
AcDbArc
 50
270.0
 51
0.0
  0
LINE
  5
ACD
330
1F
100
AcDbEntity
  8
0
 62
     1
100
AcDbLine
 10
1452.773262293084
 20
6062.538019770354
 30
0.0
 11
1464.023262293084
 21
6062.538019770354
 31
0.0
  0
LINE
  5
ACE
330
1F
100
AcDbEntity
  8
0
 62
     1
100
AcDbLine
 10
1467.773262293085
 20
6096.288019770355
 30
0.0
 11
1467.773262293085
 21
6066.288019770354
 31
0.0
  0
ARC
  5
ACF
330
1F
100
AcDbEntity
  8
0
 62
     1
100
AcDbCircle
 10
1464.023262293084
 20
6096.288019770355
 30
0.0
 40
3.75
100
AcDbArc
 50
0.0
 51
90.0
  0
LINE
  5
AD0
330
1F
100
AcDbEntity
  8
0
 62
     1
100
AcDbLine
 10
1452.773262293084
 20
6100.038019770354
 30
0.0
 11
1464.023262293084
 21
6100.038019770354
 31
0.0
  0
ARC
  5
AD1
330
1F
100
AcDbEntity
  8
0
 62
     1
100
AcDbCircle
 10
1452.773262293084
 20
6096.288019770355
 30
0.0
 40
3.75
100
AcDbArc
 50
90.0
 51
180.0
  0
LINE
  5
AD2
330
1F
100
AcDbEntity
  8
0
 62
     1
100
AcDbLine
 10
1449.023262293084
 20
6096.288019770355
 30
0.0
 11
1449.023262293084
 21
6066.288019770354
 31
0.0
  0
ARC
  5
AD3
330
1F
100
AcDbEntity
  8
0
 62
     1
100
AcDbCircle
 10
1452.773262293084
 20
6066.288019770354
 30
0.0
 40
3.75
100
AcDbArc
 50
180.0
 51
270.0
  0
LINE
  5
AD4
330
1F
100
AcDbEntity
  8
0
 62
     1
100
AcDbLine
 10
1464.023262293088
 20
6093.788019770354
 30
0.0
 11
1452.773262293088
 21
6093.788019770354
 31
0.0
  0
LINE
  5
AD5
330
1F
100
AcDbEntity
  8
0
 62
     1
100
AcDbLine
 10
1464.023262293088
 20
6087.538019770354
 30
0.0
 11
1452.773262293088
 21
6087.538019770354
 31
0.0
  0
LINE
  5
AD6
330
1F
100
AcDbEntity
  8
0
 62
     1
100
AcDbLine
 10
1464.023262293084
 20
6081.288019770354
 30
0.0
 11
1452.773262293084
 21
6081.288019770354
 31
0.0
  0
LINE
  5
AD7
330
1F
100
AcDbEntity
  8
0
 62
     1
100
AcDbLine
 10
1464.023262293084
 20
6075.038019770354
 30
0.0
 11
1452.773262293084
 21
6075.038019770354
 31
0.0
  0
LINE
  5
AD8
330
1F
100
AcDbEntity
  8
0
 62
     1
100
AcDbLine
 10
1464.023262293084
 20
6068.788019770354
 30
0.0
 11
1452.773262293084
 21
6068.788019770354
 31
0.0
  0
ARC
  5
AD9
330
1F
100
AcDbEntity
  8
0
 62
     1
100
AcDbCircle
 10
1495.273262293084
 20
6066.288019770354
 30
0.0
 40
3.75
100
AcDbArc
 50
270.0
 51
0.0
  0
LINE
  5
ADA
330
1F
100
AcDbEntity
  8
0
 62
     1
100
AcDbLine
 10
1499.023262293085
 20
6096.288019770355
 30
0.0
 11
1499.023262293085
 21
6066.288019770354
 31
0.0
  0
ARC
  5
ADB
330
1F
100
AcDbEntity
  8
0
 62
     1
100
AcDbCircle
 10
1495.273262293084
 20
6096.288019770355
 30
0.0
 40
3.75
100
AcDbArc
 50
0.0
 51
90.0
  0
LINE
  5
ADC
330
1F
100
AcDbEntity
  8
0
 62
     1
100
AcDbLine
 10
1495.273262293084
 20
6100.038019770354
 30
0.0
 11
1484.023262293084
 21
6100.038019770354
 31
0.0
  0
ARC
  5
ADD
330
1F
100
AcDbEntity
  8
0
 62
     1
100
AcDbCircle
 10
1484.023262293084
 20
6096.288019770355
 30
0.0
 40
3.75
100
AcDbArc
 50
90.0
 51
180.0
  0
LINE
  5
ADE
330
1F
100
AcDbEntity
  8
0
 62
     1
100
AcDbLine
 10
1480.273262293084
 20
6096.288019770355
 30
0.0
 11
1480.273262293084
 21
6066.288019770354
 31
0.0
  0
LINE
  5
ADF
330
1F
100
AcDbEntity
  8
0
 62
     1
100
AcDbLine
 10
1495.273262293084
 20
6062.538019770354
 30
0.0
 11
1484.023262293084
 21
6062.538019770354
 31
0.0
  0
ARC
  5
AE0
330
1F
100
AcDbEntity
  8
0
 62
     1
100
AcDbCircle
 10
1484.023262293084
 20
6066.288019770354
 30
0.0
 40
3.75
100
AcDbArc
 50
180.0
 51
270.0
  0
LINE
  5
AE1
330
1F
100
AcDbEntity
  8
0
 62
     1
100
AcDbLine
 10
1495.273262293084
 20
6068.788019770354
 30
0.0
 11
1484.023262293084
 21
6068.788019770354
 31
0.0
  0
LINE
  5
AE2
330
1F
100
AcDbEntity
  8
0
 62
     1
100
AcDbLine
 10
1495.273262293084
 20
6075.038019770354
 30
0.0
 11
1484.023262293084
 21
6075.038019770354
 31
0.0
  0
LINE
  5
AE3
330
1F
100
AcDbEntity
  8
0
 62
     1
100
AcDbLine
 10
1495.273262293084
 20
6081.288019770354
 30
0.0
 11
1484.023262293084
 21
6081.288019770354
 31
0.0
  0
LINE
  5
AE4
330
1F
100
AcDbEntity
  8
0
 62
     1
100
AcDbLine
 10
1495.273262293088
 20
6087.538019770354
 30
0.0
 11
1484.023262293088
 21
6087.538019770354
 31
0.0
  0
LINE
  5
AE5
330
1F
100
AcDbEntity
  8
0
 62
     1
100
AcDbLine
 10
1495.273262293088
 20
6093.788019770354
 30
0.0
 11
1484.023262293088
 21
6093.788019770354
 31
0.0
  0
CIRCLE
  5
AE6
330
1F
100
AcDbEntity
  8
0
 62
     1
100
AcDbCircle
 10
1474.023262293085
 20
6121.993739206397
 30
0.0
 40
10.0
  0
LINE
  5
AE7
330
1F
100
AcDbEntity
  8
MUR-EST
100
AcDbLine
 10
1613.089925671276
 20
6014.329868341175
 30
0.0
 11
1633.089925671279
 21
6014.329868341175
 31
0.0
  0
LINE
  5
AE8
330
1F
100
AcDbEntity
  8
MUR-EST
100
AcDbLine
 10
1613.089925671279
 20
6004.329868341177
 30
0.0
 11
1613.089925671276
 21
6014.329868341175
 31
0.0
  0
LINE
  5
AE9
330
1F
100
AcDbEntity
  8
MUR-EST
100
AcDbLine
 10
1865.00932229101
 20
1784.329868341174
 30
0.0
 11
2008.089925671261
 21
1784.329868341174
 31
0.0
  0
LINE
  5
AEA
330
1F
100
AcDbEntity
  8
MUR-EST
100
AcDbLine
 10
1323.089925671261
 20
2514.329868341177
 30
0.0
 11
2038.089925671261
 21
2514.329868341177
 31
0.0
  0
LINE
  5
AEB
330
1F
100
AcDbEntity
  8
MUR-EST
100
AcDbLine
 10
1323.089925671261
 20
2544.329868341171
 30
0.0
 11
1983.089925671265
 21
2544.329868341171
 31
0.0
  0
LINE
  5
AEC
330
1F
100
AcDbEntity
  8
MUR-EST
100
AcDbLine
 10
3359.166254083236
 20
2544.329868341171
 30
0.0
 11
2699.166254083236
 21
2544.329868341171
 31
0.0
  0
LINE
  5
AED
330
1F
100
AcDbEntity
  8
SCALE
100
AcDbLine
 10
2639.16625408324
 20
2174.329868341173
 30
0.0
 11
2459.166254083236
 21
2174.329868341173
 31
0.0
  0
LINE
  5
AEE
330
1F
100
AcDbEntity
  8
SCALE
100
AcDbLine
 10
2639.16625408324
 20
2204.329868341174
 30
0.0
 11
2459.166254083236
 21
2204.329868341174
 31
0.0
  0
LINE
  5
AEF
330
1F
100
AcDbEntity
  8
SCALE
100
AcDbLine
 10
2639.16625408324
 20
2234.329868341175
 30
0.0
 11
2459.166254083236
 21
2234.329868341175
 31
0.0
  0
LINE
  5
AF0
330
1F
100
AcDbEntity
  8
SCALE
100
AcDbLine
 10
2639.16625408324
 20
2054.329868341175
 30
0.0
 11
2459.166254083239
 21
2054.329868341175
 31
0.0
  0
LINE
  5
AF1
330
1F
100
AcDbEntity
  8
SCALE
100
AcDbLine
 10
2639.16625408324
 20
2084.329868341175
 30
0.0
 11
2459.166254083239
 21
2084.329868341175
 31
0.0
  0
LINE
  5
AF2
330
1F
100
AcDbEntity
  8
SCALE
100
AcDbLine
 10
2639.16625408324
 20
2114.329868341176
 30
0.0
 11
2459.166254083236
 21
2114.329868341176
 31
0.0
  0
LINE
  5
AF3
330
1F
100
AcDbEntity
  8
SCALE
100
AcDbLine
 10
2639.16625408324
 20
2144.329868341178
 30
0.0
 11
2459.166254083236
 21
2144.329868341174
 31
0.0
  0
LINE
  5
AF4
330
1F
100
AcDbEntity
  8
SCALE
100
AcDbLine
 10
2639.16625408324
 20
2264.329868341176
 30
0.0
 11
2459.166254083236
 21
2264.329868341173
 31
0.0
  0
LINE
  5
AF5
330
1F
100
AcDbEntity
  8
SCALE
100
AcDbLine
 10
2549.166254083236
 20
2295.85352642657
 30
0.0
 11
2549.166254083236
 21
2025.853526426578
 31
0.0
  0
LINE
  5
AF6
330
1F
100
AcDbEntity
  8
SCALE
100
AcDbLine
 10
2128.089925671265
 20
2294.329868341171
 30
0.0
 11
2128.089925671265
 21
2024.329868341173
 31
0.0
  0
LINE
  5
AF7
330
1F
100
AcDbEntity
  8
SCALE
100
AcDbLine
 10
2218.089925671264
 20
2264.329868341171
 30
0.0
 11
2038.089925671261
 21
2264.329868341171
 31
0.0
  0
LINE
  5
AF8
330
1F
100
AcDbEntity
  8
SCALE
100
AcDbLine
 10
2639.16625408324
 20
2294.329868341171
 30
0.0
 11
2038.089925671261
 21
2294.329868341171
 31
0.0
  0
LINE
  5
AF9
330
1F
100
AcDbEntity
  8
MUR-EST
100
AcDbLine
 10
2038.089925671265
 20
2544.329868341171
 30
0.0
 11
2038.089925671261
 21
2514.329868341177
 31
0.0
  0
LINE
  5
AFA
330
1F
100
AcDbEntity
  8
MUR-EST
100
AcDbLine
 10
2003.089925671265
 20
2544.329868341171
 30
0.0
 11
2038.089925671265
 21
2544.329868341171
 31
0.0
  0
LINE
  5
AFB
330
1F
100
AcDbEntity
  8
SCALE
100
AcDbLine
 10
2507.458051368284
 20
2264.451853741601
 30
0.0
 11
2469.60072849757
 21
2264.451853741601
 31
0.0
  0
LINE
  5
AFC
330
1F
100
AcDbEntity
  8
SCALE
100
AcDbLine
 10
2549.48538926299
 20
2295.838713076266
 30
0.0
 11
2567.45805136828
 21
2265.975511827001
 31
0.0
  0
LINE
  5
AFD
330
1F
100
AcDbEntity
  8
SCALE
100
AcDbLine
 10
2549.166254083236
 20
2295.85352642657
 30
0.0
 11
2529.600728497571
 21
2265.975511827001
 31
0.0
  0
LINE
  5
AFE
330
1F
100
AcDbEntity
  8
SCALE
100
AcDbLine
 10
2218.089925671264
 20
2144.329868341171
 30
0.0
 11
2038.089925671261
 21
2144.329868341171
 31
0.0
  0
LINE
  5
AFF
330
1F
100
AcDbEntity
  8
SCALE
100
AcDbLine
 10
2639.16625408324
 20
2024.329868341173
 30
0.0
 11
2038.089925671261
 21
2024.329868341173
 31
0.0
  0
LINE
  5
B00
330
1F
100
AcDbEntity
  8
SCALE
100
AcDbLine
 10
2218.089925671264
 20
2054.329868341175
 30
0.0
 11
2038.089925671261
 21
2054.329868341175
 31
0.0
  0
LINE
  5
B01
330
1F
100
AcDbEntity
  8
SCALE
100
AcDbLine
 10
2218.089925671264
 20
2084.329868341175
 30
0.0
 11
2038.089925671261
 21
2084.329868341175
 31
0.0
  0
LINE
  5
B02
330
1F
100
AcDbEntity
  8
SCALE
100
AcDbLine
 10
2218.089925671264
 20
2114.329868341176
 30
0.0
 11
2038.089925671261
 21
2114.329868341176
 31
0.0
  0
LINE
  5
B03
330
1F
100
AcDbEntity
  8
SCALE
100
AcDbLine
 10
2218.089925671264
 20
2174.329868341173
 30
0.0
 11
2038.089925671261
 21
2174.329868341173
 31
0.0
  0
LINE
  5
B04
330
1F
100
AcDbEntity
  8
SCALE
100
AcDbLine
 10
2218.089925671264
 20
2204.329868341174
 30
0.0
 11
2038.089925671261
 21
2204.329868341174
 31
0.0
  0
LINE
  5
B05
330
1F
100
AcDbEntity
  8
SCALE
100
AcDbLine
 10
2218.089925671264
 20
2234.329868341175
 30
0.0
 11
2038.089925671261
 21
2234.329868341175
 31
0.0
  0
LINE
  5
B06
330
1F
100
AcDbEntity
  8
SCALE
100
AcDbLine
 10
2128.372749554607
 20
2023.173737274865
 30
0.0
 11
2139.551186085332
 21
2054.329868341175
 31
0.0
  0
LINE
  5
B07
330
1F
100
AcDbEntity
  8
SCALE
100
AcDbLine
 10
2161.666254083236
 20
2067.9332569837
 30
0.0
 11
2161.666254083236
 21
2067.9332569837
 31
0.0
  0
LINE
  5
B08
330
1F
100
AcDbEntity
  8
SCALE
100
AcDbLine
 10
2161.666254083236
 20
2067.9332569837
 30
0.0
 11
2161.666254083236
 21
2067.9332569837
 31
0.0
  0
LINE
  5
B09
330
1F
100
AcDbEntity
  8
SCALE
100
AcDbLine
 10
2128.089925671265
 20
2022.233632461965
 30
0.0
 11
2115.799143552932
 21
2054.329868341175
 31
0.0
  0
LINE
  5
B0A
330
1F
100
AcDbEntity
  8
MUR-EST
100
AcDbLine
 10
2659.166254083236
 20
2274.329868341173
 30
0.0
 11
2659.166254083236
 21
2054.329868341175
 31
0.0
  0
LINE
  5
B0B
330
1F
100
AcDbEntity
  8
MUR-EST
100
AcDbLine
 10
2639.16625408324
 20
2274.329868341173
 30
0.0
 11
2639.16625408324
 21
2054.329868341175
 31
0.0
  0
LINE
  5
B0C
330
1F
100
AcDbEntity
  8
MUR-EST
100
AcDbLine
 10
2639.166254083243
 20
2544.329868341171
 30
0.0
 11
2639.16625408324
 21
2514.329868341177
 31
0.0
  0
LINE
  5
B0D
330
1F
100
AcDbEntity
  8
MUR-EST
100
AcDbLine
 10
2679.16625408324
 20
2544.329868341171
 30
0.0
 11
2639.166254083243
 21
2544.329868341171
 31
0.0
  0
LINE
  5
B0E
330
1F
100
AcDbEntity
  8
MUR-EST
100
AcDbLine
 10
2639.16625408324
 20
2394.329868341171
 30
0.0
 11
2659.166254083236
 21
2394.329868341171
 31
0.0
  0
LINE
  5
B0F
330
1F
100
AcDbEntity
  8
MUR-EST
100
AcDbLine
 10
2639.16625408324
 20
2414.329868341173
 30
0.0
 11
2659.166254083236
 21
2414.329868341169
 31
0.0
  0
LINE
  5
B10
330
1F
100
AcDbEntity
  8
ASSI-PIL
370
    15
100
AcDbLine
 10
2649.166254083236
 20
2374.329868341173
 30
0.0
 11
2649.166254083236
 21
2434.329868341169
 31
0.0
  0
LINE
  5
B11
330
1F
100
AcDbEntity
  8
MUR-EST
100
AcDbLine
 10
2659.166254083236
 20
2414.329868341169
 30
0.0
 11
2659.166254083236
 21
2394.329868341171
 31
0.0
  0
LINE
  5
B12
330
1F
100
AcDbEntity
  8
MUR-EST
100
AcDbLine
 10
2639.16625408324
 20
2414.329868341169
 30
0.0
 11
2639.16625408324
 21
2394.329868341171
 31
0.0
  0
LINE
  5
B13
330
1F
100
AcDbEntity
  8
MUR-EST
100
AcDbLine
 10
2639.16625408324
 20
2394.329868341171
 30
0.0
 11
2659.166254083236
 21
2394.329868341171
 31
0.0
  0
LINE
  5
B14
330
1F
100
AcDbEntity
  8
MUR-EST
100
AcDbLine
 10
2639.16625408324
 20
2274.329868341173
 30
0.0
 11
2659.166254083236
 21
2274.329868341173
 31
0.0
  0
LINE
  5
B15
330
1F
100
AcDbEntity
  8
MUR-EST
100
AcDbLine
 10
2639.16625408324
 20
2294.329868341171
 30
0.0
 11
2659.166254083236
 21
2294.329868341171
 31
0.0
  0
LINE
  5
B16
330
1F
100
AcDbEntity
  8
MUR-EST
100
AcDbLine
 10
2639.16625408324
 20
2294.329868341171
 30
0.0
 11
2639.16625408324
 21
2274.329868341173
 31
0.0
  0
LINE
  5
B17
330
1F
100
AcDbEntity
  8
MUR-EST
100
AcDbLine
 10
2659.166254083236
 20
2294.329868341171
 30
0.0
 11
2659.166254083236
 21
2274.329868341173
 31
0.0
  0
LINE
  5
B18
330
1F
100
AcDbEntity
  8
ASSI-PIL
370
    15
100
AcDbLine
 10
2649.166254083236
 20
2254.329868341175
 30
0.0
 11
2649.166254083236
 21
2314.329868341169
 31
0.0
  0
LINE
  5
B19
330
1F
100
AcDbEntity
  8
MUR-EST
100
AcDbLine
 10
2639.16625408324
 20
2274.329868341173
 30
0.0
 11
2659.16625408324
 21
2274.329868341173
 31
0.0
  0
LINE
  5
B1A
330
1F
100
AcDbEntity
  8
SERR-EST
100
AcDbLine
 10
2639.16625408324
 20
2514.329868341177
 30
0.0
 11
2639.16625408324
 21
2414.329868341173
 31
0.0
  0
LINE
  5
B1B
330
1F
100
AcDbEntity
  8
SERR-EST
100
AcDbLine
 10
2659.16625408324
 20
2514.329868341177
 30
0.0
 11
2659.166254083236
 21
2414.329868341169
 31
0.0
  0
LINE
  5
B1C
330
1F
100
AcDbEntity
  8
ASSI-PIL
370
    15
100
AcDbLine
 10
2619.16625408324
 20
2404.329868341168
 30
0.0
 11
2679.16625408324
 21
2404.329868341173
 31
0.0
  0
LINE
  5
B1D
330
1F
100
AcDbEntity
  8
ASSI-PIL
370
    15
100
AcDbLine
 10
2619.16625408324
 20
2284.329868341169
 30
0.0
 11
2679.16625408324
 21
2284.329868341175
 31
0.0
  0
LINE
  5
B1E
330
1F
100
AcDbEntity
  8
SERR-EST
100
AcDbLine
 10
2639.16625408324
 20
1914.329868341176
 30
0.0
 11
2639.16625408324
 21
1814.329868341176
 31
0.0
  0
LINE
  5
B1F
330
1F
100
AcDbEntity
  8
SERR-EST
100
AcDbLine
 10
2659.166254083236
 20
1914.329868341176
 30
0.0
 11
2659.16625408324
 21
1814.329868341176
 31
0.0
  0
LINE
  5
B20
330
1F
100
AcDbEntity
  8
MUR-EST
100
AcDbLine
 10
2659.166254083236
 20
2054.329868341175
 30
0.0
 11
2659.166254083236
 21
2034.329868341175
 31
0.0
  0
LINE
  5
B21
330
1F
100
AcDbEntity
  8
ASSI-PIL
370
    15
100
AcDbLine
 10
2649.166254083236
 20
2014.329868341176
 30
0.0
 11
2649.166254083236
 21
2074.329868341173
 31
0.0
  0
LINE
  5
B22
330
1F
100
AcDbEntity
  8
MUR-EST
100
AcDbLine
 10
2639.16625408324
 20
2054.329868341175
 30
0.0
 11
2639.16625408324
 21
2034.329868341175
 31
0.0
  0
LINE
  5
B23
330
1F
100
AcDbEntity
  8
MUR-EST
100
AcDbLine
 10
2639.16625408324
 20
2054.329868341175
 30
0.0
 11
2659.166254083236
 21
2054.329868341175
 31
0.0
  0
LINE
  5
B24
330
1F
100
AcDbEntity
  8
MUR-EST
100
AcDbLine
 10
2639.16625408324
 20
2034.329868341175
 30
0.0
 11
2659.166254083236
 21
2034.329868341175
 31
0.0
  0
LINE
  5
B25
330
1F
100
AcDbEntity
  8
MUR-EST
100
AcDbLine
 10
2639.16625408324
 20
2054.329868341175
 30
0.0
 11
2659.16625408324
 21
2054.329868341175
 31
0.0
  0
LINE
  5
B26
330
1F
100
AcDbEntity
  8
ASSI-PIL
370
    15
100
AcDbLine
 10
2619.16625408324
 20
2044.329868341171
 30
0.0
 11
2679.16625408324
 21
2044.329868341171
 31
0.0
  0
LINE
  5
B27
330
1F
100
AcDbEntity
  8
MUR-EST
100
AcDbLine
 10
2669.166254083236
 20
1814.329868341176
 30
0.0
 11
2669.166254083236
 21
1784.329868341174
 31
0.0
  0
LINE
  5
B28
330
1F
100
AcDbEntity
  8
MUR-EST
100
AcDbLine
 10
2639.16625408324
 20
1814.329868341176
 30
0.0
 11
2639.16625408324
 21
1784.329868341174
 31
0.0
  0
LINE
  5
B29
330
1F
100
AcDbEntity
  8
ASSI-PIL
370
    15
100
AcDbLine
 10
2654.16625408324
 20
1769.329868341178
 30
0.0
 11
2654.16625408324
 21
1829.329868341178
 31
0.0
  0
LINE
  5
B2A
330
1F
100
AcDbEntity
  8
MUR-EST
100
AcDbLine
 10
2639.16625408324
 20
1934.329868341174
 30
0.0
 11
2639.16625408324
 21
1914.329868341176
 31
0.0
  0
LINE
  5
B2B
330
1F
100
AcDbEntity
  8
MUR-EST
100
AcDbLine
 10
2659.166254083236
 20
1934.329868341174
 30
0.0
 11
2659.166254083236
 21
1914.329868341176
 31
0.0
  0
LINE
  5
B2C
330
1F
100
AcDbEntity
  8
ASSI-PIL
370
    15
100
AcDbLine
 10
2649.166254083236
 20
1894.329868341178
 30
0.0
 11
2649.166254083236
 21
1954.329868341174
 31
0.0
  0
LINE
  5
B2D
330
1F
100
AcDbEntity
  8
MUR-EST
100
AcDbLine
 10
2639.16625408324
 20
1934.329868341174
 30
0.0
 11
2659.166254083236
 21
1934.329868341174
 31
0.0
  0
LINE
  5
B2E
330
1F
100
AcDbEntity
  8
MUR-EST
100
AcDbLine
 10
2639.16625408324
 20
1914.329868341176
 30
0.0
 11
2659.166254083236
 21
1914.329868341176
 31
0.0
  0
LINE
  5
B2F
330
1F
100
AcDbEntity
  8
MUR-EST
100
AcDbLine
 10
2639.16625408324
 20
1934.329868341174
 30
0.0
 11
2659.166254083236
 21
1934.329868341174
 31
0.0
  0
LINE
  5
B30
330
1F
100
AcDbEntity
  8
MUR-EST
100
AcDbLine
 10
2669.166254083236
 20
1814.329868341176
 30
0.0
 11
2659.16625408324
 21
1814.329868341176
 31
0.0
  0
LINE
  5
B31
330
1F
100
AcDbEntity
  8
MUR-EST
100
AcDbLine
 10
2669.166254083236
 20
1784.329868341174
 30
0.0
 11
2639.16625408324
 21
1784.329868341174
 31
0.0
  0
LINE
  5
B32
330
1F
100
AcDbEntity
  8
MUR-EST
100
AcDbLine
 10
2639.16625408324
 20
1784.329868341174
 30
0.0
 11
2669.166254083236
 21
1784.329868341174
 31
0.0
  0
LINE
  5
B33
330
1F
100
AcDbEntity
  8
MUR-EST
100
AcDbLine
 10
2639.16625408324
 20
1814.329868341176
 30
0.0
 11
2669.166254083236
 21
1814.329868341176
 31
0.0
  0
LINE
  5
B34
330
1F
100
AcDbEntity
  8
ASSI-PIL
370
    15
100
AcDbLine
 10
2624.166254083236
 20
1799.329868341178
 30
0.0
 11
2684.166254083236
 21
1799.329868341178
 31
0.0
  0
LINE
  5
B35
330
1F
100
AcDbEntity
  8
ASSI-PIL
370
    15
100
AcDbLine
 10
2619.16625408324
 20
1924.329868341173
 30
0.0
 11
2679.16625408324
 21
1924.329868341173
 31
0.0
  0
LINE
  5
B36
330
1F
100
AcDbEntity
  8
MUR-EST
100
AcDbLine
 10
3759.166254083242
 20
1814.329868341216
 30
0.0
 11
3759.166254083242
 21
1466.329868341211
 31
0.0
  0
LINE
  5
B37
330
1F
100
AcDbEntity
  8
MUR-EST
100
AcDbLine
 10
3788.626762231488
 20
1814.329868341216
 30
0.0
 11
3788.626762231501
 21
614.3298683412163
 31
0.0
  0
LINE
  5
B38
330
1F
100
AcDbEntity
  8
MUR-EST
100
AcDbLine
 10
3359.166254083233
 20
2514.329868341177
 30
0.0
 11
2639.166254083236
 21
2514.329868341175
 31
0.0
  0
LINE
  5
B39
330
1F
100
AcDbEntity
  8
MUR-EST
100
AcDbLine
 10
2659.166254083236
 20
2394.329868341177
 30
0.0
 11
2659.166254083236
 21
2294.329868341171
 31
0.0
  0
LINE
  5
B3A
330
1F
100
AcDbEntity
  8
MUR-EST
100
AcDbLine
 10
2639.16625408324
 20
2394.329868341177
 30
0.0
 11
2639.16625408324
 21
2294.329868341171
 31
0.0
  0
LINE
  5
B3B
330
1F
100
AcDbEntity
  8
SERR-EST
100
AcDbLine
 10
2659.166254083236
 20
2034.329868341175
 30
0.0
 11
2659.166254083236
 21
1934.329868341174
 31
0.0
  0
LINE
  5
B3C
330
1F
100
AcDbEntity
  8
SERR-EST
100
AcDbLine
 10
2639.16625408324
 20
2034.329868341175
 30
0.0
 11
2639.16625408324
 21
1934.329868341174
 31
0.0
  0
LINE
  5
B3D
330
1F
100
AcDbEntity
  8
SERR-EST
100
AcDbLine
 10
2649.166254083236
 20
2514.329868341177
 30
0.0
 11
2649.166254083236
 21
2414.329868341169
 31
0.0
  0
LINE
  5
B3E
330
1F
100
AcDbEntity
  8
SERR-EST
100
AcDbLine
 10
2649.166254083236
 20
2034.329868341175
 30
0.0
 11
2649.166254083236
 21
1934.329868341174
 31
0.0
  0
LINE
  5
B3F
330
1F
100
AcDbEntity
  8
SERR-EST
100
AcDbLine
 10
2649.166254083236
 20
1914.329868341176
 30
0.0
 11
2649.166254083236
 21
1814.329868341176
 31
0.0
  0
LINE
  5
B40
330
1F
100
AcDbEntity
  8
SERR-EST
100
AcDbLine
 10
2654.16625408324
 20
2514.329868341177
 30
0.0
 11
2654.16625408324
 21
2414.329868341169
 31
0.0
  0
LINE
  5
B41
330
1F
100
AcDbEntity
  8
SERR-EST
100
AcDbLine
 10
2654.16625408324
 20
2034.329868341175
 30
0.0
 11
2654.16625408324
 21
1934.329868341174
 31
0.0
  0
LINE
  5
B42
330
1F
100
AcDbEntity
  8
SERR-EST
100
AcDbLine
 10
2654.16625408324
 20
1914.329868341176
 30
0.0
 11
2654.16625408324
 21
1814.329868341176
 31
0.0
  0
LINE
  5
B43
330
1F
100
AcDbEntity
  8
SCALE
  6
DASHDOT2
100
AcDbLine
 10
2218.089925671264
 20
2164.604606160614
 30
0.0
 11
2038.089925671261
 21
2087.053605122779
 31
0.0
  0
LINE
  5
B44
330
1F
100
AcDbEntity
  8
SCALE
  6
DASHDOT2
100
AcDbLine
 10
2218.089925671264
 20
2152.524930518692
 30
0.0
 11
2022.335316525986
 21
2066.891980736633
 31
0.0
  0
LINE
  5
B45
330
1F
100
AcDbEntity
  8
MUR-EST
100
AcDbLine
 10
2820.009322291014
 20
1784.329868341211
 30
0.0
 11
2820.009322291014
 21
1384.329868341211
 31
0.0
  0
LINE
  5
B46
330
1F
100
AcDbEntity
  8
MUR-EST
100
AcDbLine
 10
2795.009322291014
 20
1784.329868341211
 30
0.0
 11
2795.00932229101
 21
1384.329868341211
 31
0.0
  0
LINE
  5
B47
330
1F
100
AcDbEntity
  8
MUR-EST
100
AcDbLine
 10
3150.009322291014
 20
614.329868341209
 30
0.0
 11
3135.009322291014
 21
614.329868341209
 31
0.0
  0
LINE
  5
B48
330
1F
100
AcDbEntity
  8
SERR-EST
100
AcDbLine
 10
3135.009322291014
 20
614.3298683412163
 30
0.0
 11
2811.59396741609
 21
614.3298683412163
 31
0.0
  0
LINE
  5
B49
330
1F
100
AcDbEntity
  8
SERR-EST
100
AcDbLine
 10
3135.009322291014
 20
644.3298683412162
 30
0.0
 11
2811.59396741609
 21
644.3298683412162
 31
0.0
  0
LINE
  5
B4A
330
1F
100
AcDbEntity
  8
SERR-EST
100
AcDbLine
 10
3135.009322291014
 20
630.2198031320899
 30
0.0
 11
2811.59396741609
 21
630.2198031320899
 31
0.0
  0
LINE
  5
B4B
330
1F
100
AcDbEntity
  8
SERR-EST
100
AcDbLine
 10
3135.009322291014
 20
625.2198031320899
 30
0.0
 11
2811.59396741609
 21
625.2198031320899
 31
0.0
  0
LINE
  5
B4C
330
1F
100
AcDbEntity
  8
MUR-EST
100
AcDbLine
 10
2811.59396741609
 20
1255.236222278232
 30
0.0
 11
2811.59396741609
 21
614.3298683412163
 31
0.0
  0
LINE
  5
B4D
330
1F
100
AcDbEntity
  8
MUR-EST
100
AcDbLine
 10
2811.59396741609
 20
614.3298683412163
 30
0.0
 11
2791.59396741609
 21
614.3298683412163
 31
0.0
  0
LINE
  5
B4E
330
1F
100
AcDbEntity
  8
MUR-EST
100
AcDbLine
 10
3135.009322291014
 20
1784.329868341211
 30
0.0
 11
3135.009322291014
 21
1470.88993683425
 31
0.0
  0
LINE
  5
B4F
330
1F
100
AcDbEntity
  8
MUR-EST
100
AcDbLine
 10
3135.009322291014
 20
1384.329868341211
 30
0.0
 11
2820.009322291014
 21
1384.329868341211
 31
0.0
  0
LINE
  5
B50
330
1F
100
AcDbEntity
  8
MUR-EST
100
AcDbLine
 10
3135.009322291014
 20
1364.329868341211
 30
0.0
 11
2810.00932229101
 21
1364.329868341211
 31
0.0
  0
LINE
  5
B51
330
1F
100
AcDbEntity
  8
MUR-EST
100
AcDbLine
 10
2810.00932229101
 20
1334.329868341211
 30
0.0
 11
2795.00932229101
 21
1334.329868341211
 31
0.0
  0
LINE
  5
B52
330
1F
100
AcDbEntity
  8
MUR-EST
100
AcDbLine
 10
2810.00932229101
 20
1364.329868341211
 30
0.0
 11
2810.00932229101
 21
1334.329868341211
 31
0.0
  0
LINE
  5
B53
330
1F
100
AcDbEntity
  8
MUR-EST
100
AcDbLine
 10
3788.626762231488
 20
1814.329868341216
 30
0.0
 11
3759.166254083242
 21
1814.329868341216
 31
0.0
  0
LINE
  5
B54
330
1F
100
AcDbEntity
  8
SCALE
100
AcDbLine
 10
2820.009322291017
 20
1484.329868341211
 30
0.0
 11
2915.009322291014
 21
1484.329868341211
 31
0.0
  0
LINE
  5
B55
330
1F
100
AcDbEntity
  8
SCALE
100
AcDbLine
 10
2820.009322291017
 20
1509.329868341211
 30
0.0
 11
2910.009322291014
 21
1509.329868341211
 31
0.0
  0
LINE
  5
B56
330
1F
100
AcDbEntity
  8
SCALE
100
AcDbLine
 10
2820.009322291014
 20
1534.329868341211
 30
0.0
 11
2910.009322291014
 21
1534.329868341211
 31
0.0
  0
LINE
  5
B57
330
1F
100
AcDbEntity
  8
SCALE
100
AcDbLine
 10
2820.009322291017
 20
1559.329868341211
 30
0.0
 11
2910.009322291014
 21
1559.329868341211
 31
0.0
  0
LINE
  5
B58
330
1F
100
AcDbEntity
  8
SCALE
100
AcDbLine
 10
2820.009322291017
 20
1584.32986834121
 30
0.0
 11
2910.009322291014
 21
1584.32986834121
 31
0.0
  0
LINE
  5
B59
330
1F
100
AcDbEntity
  8
SCALE
100
AcDbLine
 10
2820.009322291017
 20
1609.329868341211
 30
0.0
 11
2910.009322291014
 21
1609.329868341211
 31
0.0
  0
LINE
  5
B5A
330
1F
100
AcDbEntity
  8
SCALE
100
AcDbLine
 10
2820.009322291017
 20
1634.329868341211
 30
0.0
 11
3135.009322291014
 21
1634.329868341211
 31
0.0
  0
LINE
  5
B5B
330
1F
100
AcDbEntity
  8
SCALE
100
AcDbLine
 10
3040.009322291014
 20
1484.329868341211
 30
0.0
 11
3135.009322291014
 21
1484.329868341211
 31
0.0
  0
LINE
  5
B5C
330
1F
100
AcDbEntity
  8
SCALE
100
AcDbLine
 10
3045.009322291014
 20
1509.329868341211
 30
0.0
 11
3135.009322291014
 21
1509.329868341211
 31
0.0
  0
LINE
  5
B5D
330
1F
100
AcDbEntity
  8
SCALE
100
AcDbLine
 10
3045.009322291014
 20
1534.329868341211
 30
0.0
 11
3135.009322291014
 21
1534.329868341211
 31
0.0
  0
LINE
  5
B5E
330
1F
100
AcDbEntity
  8
SCALE
100
AcDbLine
 10
3045.009322291014
 20
1559.329868341211
 30
0.0
 11
3135.009322291014
 21
1559.329868341211
 31
0.0
  0
LINE
  5
B5F
330
1F
100
AcDbEntity
  8
SCALE
100
AcDbLine
 10
3045.009322291014
 20
1584.32986834121
 30
0.0
 11
3135.009322291014
 21
1584.32986834121
 31
0.0
  0
LINE
  5
B60
330
1F
100
AcDbEntity
  8
SCALE
100
AcDbLine
 10
3045.009322291014
 20
1609.329868341211
 30
0.0
 11
3135.009322291014
 21
1609.329868341211
 31
0.0
  0
LINE
  5
B61
330
1F
100
AcDbEntity
  8
SCALE
100
AcDbLine
 10
2865.009322291014
 20
1484.329868341211
 30
0.0
 11
2865.009322291014
 21
1634.09265598689
 31
0.0
  0
LINE
  5
B62
330
1F
100
AcDbEntity
  8
SCALE
100
AcDbLine
 10
3090.009322291014
 20
1484.329868341211
 30
0.0
 11
3090.009322291014
 21
1634.09265598689
 31
0.0
  0
LINE
  5
B63
330
1F
100
AcDbEntity
  8
SCALE
100
AcDbLine
 10
2864.453812739564
 20
1482.206478241718
 30
0.0
 11
2876.219225183128
 21
1501.284257036758
 31
0.0
  0
LINE
  5
B64
330
1F
100
AcDbEntity
  8
SCALE
100
AcDbLine
 10
2864.453812739564
 20
1482.206478241718
 30
0.0
 11
2850.184221038841
 21
1501.863363427529
 31
0.0
  0
LINE
  5
B65
330
1F
100
AcDbEntity
  8
SCALE
100
AcDbLine
 10
3089.779153392348
 20
1634.28569145048
 30
0.0
 11
3101.544565835909
 21
1615.20791265544
 31
0.0
  0
LINE
  5
B66
330
1F
100
AcDbEntity
  8
SCALE
100
AcDbLine
 10
3089.779153392348
 20
1634.28569145048
 30
0.0
 11
3075.509561691621
 21
1614.62880626467
 31
0.0
  0
LINE
  5
B67
330
1F
100
AcDbEntity
  8
MUR-EST
100
AcDbLine
 10
2810.009322291014
 20
1254.800593759565
 30
0.0
 11
2791.59396741609
 21
1254.800593759565
 31
0.0
  0
LINE
  5
B68
330
1F
100
AcDbEntity
  8
SERR-INT
100
AcDbLine
 10
2802.50932229101
 20
1334.329868341211
 30
0.0
 11
2802.774628401242
 21
1254.393445973278
 31
0.0
  0
LINE
  5
B69
330
1F
100
AcDbEntity
  8
MUR-EST
100
AcDbLine
 10
2795.009322291014
 20
1784.329868341211
 30
0.0
 11
2772.737259507437
 21
1784.329868341211
 31
0.0
  0
LINE
  5
B6A
330
1F
100
AcDbEntity
  8
MUR-EST
100
AcDbLine
 10
3135.009322291014
 20
1784.329868341211
 30
0.0
 11
2820.009322291014
 21
1784.329868341211
 31
0.0
  0
LINE
  5
B6B
330
1F
100
AcDbEntity
  8
MUR-EST
100
AcDbLine
 10
1865.00932229101
 20
1814.329868341175
 30
0.0
 11
1865.00932229101
 21
1784.329868341171
 31
0.0
  0
LINE
  5
B6C
330
1F
100
AcDbEntity
  8
SERR-EST
100
AcDbLine
 10
1865.00932229101
 20
1784.329868341174
 30
0.0
 11
1665.813898723171
 21
1784.329868341174
 31
0.0
  0
LINE
  5
B6D
330
1F
100
AcDbEntity
  8
SERR-EST
100
AcDbLine
 10
1865.00932229101
 20
1794.162396112486
 30
0.0
 11
1665.813898723171
 21
1794.162396112486
 31
0.0
  0
LINE
  5
B6E
330
1F
100
AcDbEntity
  8
SERR-EST
100
AcDbLine
 10
1865.00932229101
 20
1799.162396112486
 30
0.0
 11
1665.813898723171
 21
1799.162396112486
 31
0.0
  0
LINE
  5
B6F
330
1F
100
AcDbEntity
  8
MUR-EST
100
AcDbLine
 10
2038.089925671261
 20
2274.329868341173
 30
0.0
 11
2038.089925671261
 21
2054.329868341175
 31
0.0
  0
LINE
  5
B70
330
1F
100
AcDbEntity
  8
MUR-EST
100
AcDbLine
 10
2018.089925671265
 20
2274.329868341173
 30
0.0
 11
2018.089925671265
 21
2054.329868341175
 31
0.0
  0
LINE
  5
B71
330
1F
100
AcDbEntity
  8
SERR-EST
100
AcDbLine
 10
2023.089925671261
 20
2034.329868341175
 30
0.0
 11
2023.089925671261
 21
1934.329868341174
 31
0.0
  0
LINE
  5
B72
330
1F
100
AcDbEntity
  8
SERR-EST
100
AcDbLine
 10
2028.089925671265
 20
2034.329868341175
 30
0.0
 11
2028.089925671265
 21
1934.329868341174
 31
0.0
  0
LINE
  5
B73
330
1F
100
AcDbEntity
  8
SERR-EST
100
AcDbLine
 10
2038.089925671261
 20
2034.329868341175
 30
0.0
 11
2038.089925671261
 21
1934.329868341174
 31
0.0
  0
LINE
  5
B74
330
1F
100
AcDbEntity
  8
SERR-EST
100
AcDbLine
 10
2018.089925671265
 20
2034.329868341175
 30
0.0
 11
2018.089925671265
 21
1934.329868341174
 31
0.0
  0
LINE
  5
B75
330
1F
100
AcDbEntity
  8
ASSI-PIL
370
    15
100
AcDbLine
 10
2058.089925671261
 20
1924.329868341173
 30
0.0
 11
1998.089925671261
 21
1924.329868341173
 31
0.0
  0
LINE
  5
B76
330
1F
100
AcDbEntity
  8
ASSI-PIL
370
    15
100
AcDbLine
 10
2053.089925671265
 20
1799.329868341178
 30
0.0
 11
1993.089925671264
 21
1799.329868341178
 31
0.0
  0
LINE
  5
B77
330
1F
100
AcDbEntity
  8
MUR-EST
100
AcDbLine
 10
2038.089925671261
 20
1814.329868341176
 30
0.0
 11
2008.089925671265
 21
1814.329868341176
 31
0.0
  0
LINE
  5
B78
330
1F
100
AcDbEntity
  8
MUR-EST
100
AcDbLine
 10
2038.089925671261
 20
1784.329868341174
 30
0.0
 11
2008.089925671261
 21
1784.329868341174
 31
0.0
  0
LINE
  5
B79
330
1F
100
AcDbEntity
  8
MUR-EST
100
AcDbLine
 10
2008.089925671265
 20
1784.329868341174
 30
0.0
 11
2038.089925671261
 21
1784.329868341174
 31
0.0
  0
LINE
  5
B7A
330
1F
100
AcDbEntity
  8
MUR-EST
100
AcDbLine
 10
2008.089925671265
 20
1814.329868341176
 30
0.0
 11
2018.089925671261
 21
1814.329868341176
 31
0.0
  0
LINE
  5
B7B
330
1F
100
AcDbEntity
  8
SERR-EST
100
AcDbLine
 10
2023.089925671261
 20
1914.329868341176
 30
0.0
 11
2023.089925671261
 21
1814.329868341176
 31
0.0
  0
LINE
  5
B7C
330
1F
100
AcDbEntity
  8
SERR-EST
100
AcDbLine
 10
2028.089925671265
 20
1914.329868341176
 30
0.0
 11
2028.089925671265
 21
1814.329868341176
 31
0.0
  0
LINE
  5
B7D
330
1F
100
AcDbEntity
  8
MUR-EST
100
AcDbLine
 10
2038.089925671261
 20
1934.329868341174
 30
0.0
 11
2018.089925671265
 21
1934.329868341174
 31
0.0
  0
LINE
  5
B7E
330
1F
100
AcDbEntity
  8
MUR-EST
100
AcDbLine
 10
2038.089925671261
 20
1914.329868341176
 30
0.0
 11
2018.089925671265
 21
1914.329868341176
 31
0.0
  0
LINE
  5
B7F
330
1F
100
AcDbEntity
  8
MUR-EST
100
AcDbLine
 10
2038.089925671261
 20
1934.329868341174
 30
0.0
 11
2018.089925671265
 21
1934.329868341174
 31
0.0
  0
LINE
  5
B80
330
1F
100
AcDbEntity
  8
ASSI-PIL
370
    15
100
AcDbLine
 10
2028.089925671265
 20
1894.329868341178
 30
0.0
 11
2028.089925671265
 21
1954.329868341174
 31
0.0
  0
LINE
  5
B81
330
1F
100
AcDbEntity
  8
MUR-EST
100
AcDbLine
 10
2018.089925671265
 20
1934.329868341174
 30
0.0
 11
2018.089925671265
 21
1914.329868341176
 31
0.0
  0
LINE
  5
B82
330
1F
100
AcDbEntity
  8
MUR-EST
100
AcDbLine
 10
2038.089925671261
 20
1934.329868341174
 30
0.0
 11
2038.089925671261
 21
1914.329868341176
 31
0.0
  0
LINE
  5
B83
330
1F
100
AcDbEntity
  8
ASSI-PIL
370
    15
100
AcDbLine
 10
2023.089925671261
 20
1769.329868341178
 30
0.0
 11
2023.089925671261
 21
1829.329868341178
 31
0.0
  0
LINE
  5
B84
330
1F
100
AcDbEntity
  8
MUR-EST
100
AcDbLine
 10
2038.089925671261
 20
1814.329868341176
 30
0.0
 11
2038.089925671261
 21
1784.329868341174
 31
0.0
  0
LINE
  5
B85
330
1F
100
AcDbEntity
  8
SERR-EST
100
AcDbLine
 10
2018.089925671265
 20
1914.329868341176
 30
0.0
 11
2018.089925671261
 21
1814.329868341176
 31
0.0
  0
LINE
  5
B86
330
1F
100
AcDbEntity
  8
SERR-EST
100
AcDbLine
 10
2038.089925671261
 20
1914.329868341176
 30
0.0
 11
2038.089925671261
 21
1814.329868341176
 31
0.0
  0
LINE
  5
B87
330
1F
100
AcDbEntity
  8
MUR-EST
100
AcDbLine
 10
2008.089925671265
 20
1814.329868341176
 30
0.0
 11
2008.089925671261
 21
1784.329868341174
 31
0.0
  0
LINE
  5
B88
330
1F
100
AcDbEntity
  8
ASSI-PIL
370
    15
100
AcDbLine
 10
2058.089925671261
 20
2044.329868341171
 30
0.0
 11
1998.089925671261
 21
2044.329868341171
 31
0.0
  0
LINE
  5
B89
330
1F
100
AcDbEntity
  8
MUR-EST
100
AcDbLine
 10
2038.089925671261
 20
2054.329868341175
 30
0.0
 11
2018.089925671261
 21
2054.329868341175
 31
0.0
  0
LINE
  5
B8A
330
1F
100
AcDbEntity
  8
MUR-EST
100
AcDbLine
 10
2038.089925671261
 20
2034.329868341175
 30
0.0
 11
2018.089925671265
 21
2034.329868341175
 31
0.0
  0
LINE
  5
B8B
330
1F
100
AcDbEntity
  8
MUR-EST
100
AcDbLine
 10
2038.089925671261
 20
2054.329868341175
 30
0.0
 11
2018.089925671265
 21
2054.329868341175
 31
0.0
  0
LINE
  5
B8C
330
1F
100
AcDbEntity
  8
MUR-EST
100
AcDbLine
 10
2038.089925671261
 20
2054.329868341175
 30
0.0
 11
2038.089925671261
 21
2034.329868341175
 31
0.0
  0
LINE
  5
B8D
330
1F
100
AcDbEntity
  8
ASSI-PIL
370
    15
100
AcDbLine
 10
2028.089925671265
 20
2014.329868341176
 30
0.0
 11
2028.089925671265
 21
2074.329868341173
 31
0.0
  0
LINE
  5
B8E
330
1F
100
AcDbEntity
  8
MUR-EST
100
AcDbLine
 10
2018.089925671265
 20
2054.329868341175
 30
0.0
 11
2018.089925671265
 21
2034.329868341175
 31
0.0
  0
LINE
  5
B8F
330
1F
100
AcDbEntity
  8
MUR-EST
100
AcDbLine
 10
2038.089925671261
 20
2394.329868341171
 30
0.0
 11
2038.089925671261
 21
2294.329868341171
 31
0.0
  0
LINE
  5
B90
330
1F
100
AcDbEntity
  8
MUR-EST
100
AcDbLine
 10
2018.089925671265
 20
2394.329868341177
 30
0.0
 11
2018.089925671265
 21
2294.329868341171
 31
0.0
  0
LINE
  5
B91
330
1F
100
AcDbEntity
  8
ASSI-PIL
370
    15
100
AcDbLine
 10
2028.089925671265
 20
2374.329868341173
 30
0.0
 11
2028.089925671265
 21
2434.329868341169
 31
0.0
  0
LINE
  5
B92
330
1F
100
AcDbEntity
  8
ASSI-PIL
370
    15
100
AcDbLine
 10
2058.089925671261
 20
2284.329868341169
 30
0.0
 11
1998.089925671261
 21
2284.329868341175
 31
0.0
  0
LINE
  5
B93
330
1F
100
AcDbEntity
  8
MUR-EST
100
AcDbLine
 10
2038.089925671261
 20
2274.329868341173
 30
0.0
 11
2018.089925671261
 21
2274.329868341173
 31
0.0
  0
LINE
  5
B94
330
1F
100
AcDbEntity
  8
ASSI-PIL
370
    15
100
AcDbLine
 10
2028.089925671265
 20
2254.329868341175
 30
0.0
 11
2028.089925671265
 21
2314.329868341169
 31
0.0
  0
LINE
  5
B95
330
1F
100
AcDbEntity
  8
MUR-EST
100
AcDbLine
 10
2018.089925671265
 20
2294.329868341171
 30
0.0
 11
2018.089925671265
 21
2274.329868341173
 31
0.0
  0
LINE
  5
B96
330
1F
100
AcDbEntity
  8
MUR-EST
100
AcDbLine
 10
2038.089925671261
 20
2294.329868341171
 30
0.0
 11
2038.089925671261
 21
2274.329868341173
 31
0.0
  0
LINE
  5
B97
330
1F
100
AcDbEntity
  8
MUR-EST
100
AcDbLine
 10
2038.089925671261
 20
2294.329868341171
 30
0.0
 11
2018.089925671265
 21
2294.329868341171
 31
0.0
  0
LINE
  5
B98
330
1F
100
AcDbEntity
  8
MUR-EST
100
AcDbLine
 10
2038.089925671261
 20
2274.329868341173
 30
0.0
 11
2018.089925671265
 21
2274.329868341173
 31
0.0
  0
LINE
  5
B99
330
1F
100
AcDbEntity
  8
ASSI-PIL
370
    15
100
AcDbLine
 10
2058.089925671261
 20
2404.329868341168
 30
0.0
 11
1998.089925671261
 21
2404.329868341173
 31
0.0
  0
LINE
  5
B9A
330
1F
100
AcDbEntity
  8
SERR-EST
100
AcDbLine
 10
2023.089925671261
 20
2514.329868341177
 30
0.0
 11
2023.089925671261
 21
2414.329868341169
 31
0.0
  0
LINE
  5
B9B
330
1F
100
AcDbEntity
  8
SERR-EST
100
AcDbLine
 10
2028.089925671265
 20
2514.329868341177
 30
0.0
 11
2028.089925671265
 21
2414.329868341169
 31
0.0
  0
LINE
  5
B9C
330
1F
100
AcDbEntity
  8
SERR-EST
100
AcDbLine
 10
2018.089925671261
 20
2514.329868341177
 30
0.0
 11
2018.089925671265
 21
2414.329868341169
 31
0.0
  0
LINE
  5
B9D
330
1F
100
AcDbEntity
  8
MUR-EST
100
AcDbLine
 10
2038.089925671261
 20
2394.329868341171
 30
0.0
 11
2018.089925671265
 21
2394.329868341171
 31
0.0
  0
LINE
  5
B9E
330
1F
100
AcDbEntity
  8
MUR-EST
100
AcDbLine
 10
2038.089925671261
 20
2414.329868341169
 30
0.0
 11
2038.089925671261
 21
2394.329868341171
 31
0.0
  0
LINE
  5
B9F
330
1F
100
AcDbEntity
  8
MUR-EST
100
AcDbLine
 10
2018.089925671265
 20
2414.329868341169
 30
0.0
 11
2018.089925671265
 21
2394.329868341171
 31
0.0
  0
LINE
  5
BA0
330
1F
100
AcDbEntity
  8
MUR-EST
100
AcDbLine
 10
2038.089925671261
 20
2414.329868341173
 30
0.0
 11
2018.089925671265
 21
2414.329868341169
 31
0.0
  0
LINE
  5
BA1
330
1F
100
AcDbEntity
  8
MUR-EST
100
AcDbLine
 10
2038.089925671261
 20
2394.329868341171
 30
0.0
 11
2018.089925671265
 21
2394.329868341171
 31
0.0
  0
LINE
  5
BA2
330
1F
100
AcDbEntity
  8
SERR-INT
100
AcDbLine
 10
2041.273922018207
 20
2614.329868341133
 30
0.0
 11
2041.273922018207
 21
2524.329868341173
 31
0.0
  0
LINE
  5
BA3
330
1F
100
AcDbEntity
  8
SERR-INT
100
AcDbLine
 10
2635.67907070462
 20
2614.329868341224
 30
0.0
 11
2635.67907070462
 21
2524.329868341173
 31
0.0
  0
LINE
  5
BA4
330
1F
100
AcDbEntity
  8
SERR-INT
100
AcDbLine
 10
2221.273922018211
 20
2614.329868341198
 30
0.0
 11
2221.273922018211
 21
2524.329868341173
 31
0.0
  0
LINE
  5
BA5
330
1F
100
AcDbEntity
  8
SERR-INT
100
AcDbLine
 10
2455.679070704616
 20
2614.329868341073
 30
0.0
 11
2455.679070704616
 21
2524.329868341173
 31
0.0
  0
LINE
  5
BA6
330
1F
100
AcDbEntity
  8
SERR-INT
100
AcDbLine
 10
2455.679070704616
 20
2524.329868341173
 30
0.0
 11
2221.273922018211
 21
2524.329868341173
 31
0.0
  0
LINE
  5
BA7
330
1F
100
AcDbEntity
  8
SERR-INT
100
AcDbLine
 10
2455.679070704616
 20
2529.329868341173
 30
0.0
 11
2221.273922018211
 21
2529.329868341173
 31
0.0
  0
ARC
  5
BA8
330
1F
100
AcDbEntity
  8
SERR-INT
100
AcDbCircle
 10
2041.273922018207
 20
2524.329868341173
 30
0.0
 40
90.0
100
AcDbArc
 50
0.0
 51
90.0
  0
ARC
  5
BA9
330
1F
100
AcDbEntity
  8
SERR-INT
100
AcDbCircle
 10
2455.679070704616
 20
2524.329868341173
 30
0.0
 40
90.0
100
AcDbArc
 50
0.0
 51
90.0
  0
ARC
  5
BAA
330
1F
100
AcDbEntity
  8
SERR-INT
100
AcDbCircle
 10
2635.67907070462
 20
2524.329868341173
 30
0.0
 40
90.0
100
AcDbArc
 50
90.0
 51
180.0
  0
ARC
  5
BAB
330
1F
100
AcDbEntity
  8
SERR-INT
100
AcDbCircle
 10
2221.273922018211
 20
2524.329868341173
 30
0.0
 40
90.0
100
AcDbArc
 50
90.0
 51
180.0
  0
LINE
  5
BAC
330
1F
100
AcDbEntity
  8
SERR-EST
100
AcDbLine
 10
1323.089925671261
 20
6144.329868341177
 30
0.0
 11
1323.089925671261
 21
5854.329868341176
 31
0.0
  0
LINE
  5
BAD
330
1F
100
AcDbEntity
  8
SERR-EST
100
AcDbLine
 10
1353.089925671265
 20
6144.329868341177
 30
0.0
 11
1353.089925671265
 21
5854.329868341176
 31
0.0
  0
LINE
  5
BAE
330
1F
100
AcDbEntity
  8
SERR-EST
100
AcDbLine
 10
1328.089925671265
 20
6144.329868341177
 30
0.0
 11
1328.089925671265
 21
5854.329868341176
 31
0.0
  0
LINE
  5
BAF
330
1F
100
AcDbEntity
  8
SERR-EST
100
AcDbLine
 10
1333.089925671265
 20
6144.329868341177
 30
0.0
 11
1333.089925671268
 21
5854.329868341176
 31
0.0
  0
LINE
  5
BB0
330
1F
100
AcDbEntity
  8
MUR-EST
100
AcDbLine
 10
1323.089925671261
 20
2514.329868341177
 30
0.0
 11
1323.089925671261
 21
2544.329868341171
 31
0.0
  0
LINE
  5
BB1
330
1F
100
AcDbEntity
  8
MUR-EST
100
AcDbLine
 10
3359.166254083236
 20
2544.329868341171
 30
0.0
 11
3359.166254083233
 21
2514.329868341177
 31
0.0
  0
LINE
  5
BB2
330
1F
100
AcDbEntity
  8
MUR-EST
100
AcDbLine
 10
2003.089925671265
 20
6144.329868341177
 30
0.0
 11
2003.089925671265
 21
5984.329868341177
 31
0.0
  0
LINE
  5
BB3
330
1F
100
AcDbEntity
  8
MUR-EST
100
AcDbLine
 10
1323.089925671261
 20
3244.329868341171
 30
0.0
 11
1983.089925671265
 21
3244.329868341171
 31
0.0
  0
LINE
  5
BB4
330
1F
100
AcDbEntity
  8
MUR-EST
100
AcDbLine
 10
1323.089925671261
 20
3264.329868341171
 30
0.0
 11
1983.089925671265
 21
3264.329868341171
 31
0.0
  0
LINE
  5
BB5
330
1F
100
AcDbEntity
  8
MUR-EST
100
AcDbLine
 10
1323.089925671261
 20
4004.32986834117
 30
0.0
 11
1983.089925671265
 21
4004.32986834117
 31
0.0
  0
LINE
  5
BB6
330
1F
100
AcDbEntity
  8
MUR-EST
100
AcDbLine
 10
1323.089925671261
 20
4704.329868341168
 30
0.0
 11
1983.089925671265
 21
4704.329868341168
 31
0.0
  0
LINE
  5
BB7
330
1F
100
AcDbEntity
  8
MUR-EST
100
AcDbLine
 10
1323.089925671261
 20
4724.329868341168
 30
0.0
 11
1983.089925671265
 21
4724.329868341168
 31
0.0
  0
LINE
  5
BB8
330
1F
100
AcDbEntity
  8
MUR-EST
100
AcDbLine
 10
1323.089925671261
 20
5444.329868341178
 30
0.0
 11
1983.089925671265
 21
5444.329868341178
 31
0.0
  0
LINE
  5
BB9
330
1F
100
AcDbEntity
  8
MUR-EST
100
AcDbLine
 10
1323.089925671261
 20
5464.329868341179
 30
0.0
 11
1983.089925671265
 21
5464.329868341179
 31
0.0
  0
LINE
  5
BBA
330
1F
100
AcDbEntity
  8
MUR-EST
100
AcDbLine
 10
1323.089925671261
 20
5834.329868341177
 30
0.0
 11
1407.881609287563
 21
5834.329868341177
 31
0.0
  0
LINE
  5
BBB
330
1F
100
AcDbEntity
  8
MUR-EST
100
AcDbLine
 10
1323.089925671261
 20
6174.329868341178
 30
0.0
 11
1900.430105320061
 21
6174.329868341178
 31
0.0
  0
LINE
  5
BBC
330
1F
100
AcDbEntity
  8
MUR-EST
100
AcDbLine
 10
1983.089925671265
 20
3164.329868341171
 30
0.0
 11
2003.089925671265
 21
3164.329868341171
 31
0.0
  0
LINE
  5
BBD
330
1F
100
AcDbEntity
  8
MUR-EST
100
AcDbLine
 10
1983.089925671265
 20
3084.329868341171
 30
0.0
 11
2003.089925671265
 21
3084.329868341171
 31
0.0
  0
LINE
  5
BBE
330
1F
100
AcDbEntity
  8
MUR-EST
100
AcDbLine
 10
1983.089925671265
 20
3084.329868341171
 30
0.0
 11
1983.089925671265
 21
2544.329868341171
 31
0.0
  0
LINE
  5
BBF
330
1F
100
AcDbEntity
  8
MUR-EST
100
AcDbLine
 10
2003.089925671261
 20
3084.329868341171
 30
0.0
 11
2003.089925671265
 21
2544.329868341171
 31
0.0
  0
LINE
  5
BC0
330
1F
100
AcDbEntity
  8
SERR-INT
100
AcDbLine
 10
1993.089925671264
 20
3164.329868341171
 30
0.0
 11
1993.089925671264
 21
3084.329868341171
 31
0.0
  0
LINE
  5
BC1
330
1F
100
AcDbEntity
  8
SERR-EST
100
AcDbLine
 10
1353.089925671265
 20
3244.329868341171
 30
0.0
 11
1353.089925671265
 21
2544.329868341171
 31
0.0
  0
LINE
  5
BC2
330
1F
100
AcDbEntity
  8
SERR-EST
100
AcDbLine
 10
1333.089925671265
 20
3244.329868341171
 30
0.0
 11
1333.089925671265
 21
2544.329868341171
 31
0.0
  0
LINE
  5
BC3
330
1F
100
AcDbEntity
  8
SERR-EST
100
AcDbLine
 10
1328.089925671265
 20
3244.329868341171
 30
0.0
 11
1328.089925671265
 21
2544.329868341171
 31
0.0
  0
LINE
  5
BC4
330
1F
100
AcDbEntity
  8
SERR-EST
100
AcDbLine
 10
1323.089925671261
 20
3244.329868341171
 30
0.0
 11
1323.089925671261
 21
2544.329868341171
 31
0.0
  0
LINE
  5
BC5
330
1F
100
AcDbEntity
  8
MUR-EST
100
AcDbLine
 10
1323.089925671261
 20
3264.329868341171
 30
0.0
 11
1323.089925671261
 21
3244.329868341171
 31
0.0
  0
LINE
  5
BC6
330
1F
100
AcDbEntity
  8
SERR-EST
100
AcDbLine
 10
1353.089925671265
 20
3984.32986834117
 30
0.0
 11
1353.089925671265
 21
3264.329868341171
 31
0.0
  0
LINE
  5
BC7
330
1F
100
AcDbEntity
  8
SERR-EST
100
AcDbLine
 10
1333.089925671265
 20
3984.32986834117
 30
0.0
 11
1333.089925671265
 21
3264.329868341171
 31
0.0
  0
LINE
  5
BC8
330
1F
100
AcDbEntity
  8
SERR-EST
100
AcDbLine
 10
1328.089925671265
 20
3984.32986834117
 30
0.0
 11
1328.089925671265
 21
3264.329868341171
 31
0.0
  0
LINE
  5
BC9
330
1F
100
AcDbEntity
  8
SERR-EST
100
AcDbLine
 10
1323.089925671261
 20
3984.32986834117
 30
0.0
 11
1323.089925671261
 21
3264.329868341171
 31
0.0
  0
LINE
  5
BCA
330
1F
100
AcDbEntity
  8
MUR-EST
100
AcDbLine
 10
1323.089925671261
 20
4004.32986834117
 30
0.0
 11
1323.089925671261
 21
3984.32986834117
 31
0.0
  0
LINE
  5
BCB
330
1F
100
AcDbEntity
  8
SERR-INT
100
AcDbLine
 10
1993.089925671264
 20
3904.329868341171
 30
0.0
 11
1993.089925671264
 21
3824.32986834117
 31
0.0
  0
LINE
  5
BCC
330
1F
100
AcDbEntity
  8
MUR-EST
100
AcDbLine
 10
1983.089925671265
 20
3824.32986834117
 30
0.0
 11
2003.089925671265
 21
3824.32986834117
 31
0.0
  0
LINE
  5
BCD
330
1F
100
AcDbEntity
  8
MUR-EST
100
AcDbLine
 10
1983.089925671265
 20
3904.329868341171
 30
0.0
 11
2003.089925671265
 21
3904.329868341171
 31
0.0
  0
LINE
  5
BCE
330
1F
100
AcDbEntity
  8
MUR-EST
100
AcDbLine
 10
1983.089925671265
 20
3824.32986834117
 30
0.0
 11
1983.089925671265
 21
3264.329868341171
 31
0.0
  0
LINE
  5
BCF
330
1F
100
AcDbEntity
  8
MUR-EST
100
AcDbLine
 10
2003.089925671261
 20
3824.32986834117
 30
0.0
 11
2003.089925671261
 21
3164.329868341171
 31
0.0
  0
LINE
  5
BD0
330
1F
100
AcDbEntity
  8
MUR-EST
100
AcDbLine
 10
1983.089925671261
 20
3984.329868341169
 30
0.0
 11
1983.089925671265
 21
3904.329868341171
 31
0.0
  0
LINE
  5
BD1
330
1F
100
AcDbEntity
  8
MUR-EST
100
AcDbLine
 10
1983.089925671265
 20
3244.329868341171
 30
0.0
 11
1983.089925671265
 21
3164.329868341171
 31
0.0
  0
LINE
  5
BD2
330
1F
100
AcDbEntity
  8
SERR-EST
100
AcDbLine
 10
1353.089925671265
 20
4704.329868341168
 30
0.0
 11
1353.089925671265
 21
4004.32986834117
 31
0.0
  0
LINE
  5
BD3
330
1F
100
AcDbEntity
  8
SERR-EST
100
AcDbLine
 10
1333.089925671268
 20
4704.329868341168
 30
0.0
 11
1333.089925671265
 21
4004.32986834117
 31
0.0
  0
LINE
  5
BD4
330
1F
100
AcDbEntity
  8
SERR-EST
100
AcDbLine
 10
1328.089925671265
 20
4704.329868341168
 30
0.0
 11
1328.089925671265
 21
4004.32986834117
 31
0.0
  0
LINE
  5
BD5
330
1F
100
AcDbEntity
  8
SERR-EST
100
AcDbLine
 10
1323.089925671261
 20
4704.329868341168
 30
0.0
 11
1323.089925671261
 21
4004.32986834117
 31
0.0
  0
LINE
  5
BD6
330
1F
100
AcDbEntity
  8
MUR-EST
100
AcDbLine
 10
1323.089925671261
 20
4724.329868341168
 30
0.0
 11
1323.089925671261
 21
4704.329868341168
 31
0.0
  0
LINE
  5
BD7
330
1F
100
AcDbEntity
  8
MUR-EST
100
AcDbLine
 10
1983.089925671265
 20
4624.329868341169
 30
0.0
 11
2003.089925671265
 21
4624.329868341169
 31
0.0
  0
LINE
  5
BD8
330
1F
100
AcDbEntity
  8
MUR-EST
100
AcDbLine
 10
1983.089925671265
 20
4544.329868341168
 30
0.0
 11
2003.089925671265
 21
4544.329868341168
 31
0.0
  0
LINE
  5
BD9
330
1F
100
AcDbEntity
  8
SERR-INT
100
AcDbLine
 10
1993.089925671264
 20
4624.329868341169
 30
0.0
 11
1993.089925671264
 21
4544.329868341168
 31
0.0
  0
LINE
  5
BDA
330
1F
100
AcDbEntity
  8
MUR-EST
100
AcDbLine
 10
1983.089925671265
 20
4544.329868341168
 30
0.0
 11
1983.089925671261
 21
4004.32986834117
 31
0.0
  0
LINE
  5
BDB
330
1F
100
AcDbEntity
  8
MUR-EST
100
AcDbLine
 10
2003.089925671265
 20
4544.329868341168
 30
0.0
 11
2003.089925671265
 21
3904.329868341171
 31
0.0
  0
LINE
  5
BDC
330
1F
100
AcDbEntity
  8
MUR-EST
100
AcDbLine
 10
1983.089925671265
 20
4704.329868341168
 30
0.0
 11
1983.089925671265
 21
4624.329868341169
 31
0.0
  0
LINE
  5
BDD
330
1F
100
AcDbEntity
  8
SERR-EST
100
AcDbLine
 10
1353.089925671265
 20
5444.32986834118
 30
0.0
 11
1353.089925671265
 21
4724.329868341168
 31
0.0
  0
LINE
  5
BDE
330
1F
100
AcDbEntity
  8
SERR-EST
100
AcDbLine
 10
1333.089925671268
 20
5444.32986834118
 30
0.0
 11
1333.089925671268
 21
4724.329868341168
 31
0.0
  0
LINE
  5
BDF
330
1F
100
AcDbEntity
  8
SERR-EST
100
AcDbLine
 10
1328.089925671265
 20
5444.32986834118
 30
0.0
 11
1328.089925671265
 21
4724.329868341168
 31
0.0
  0
LINE
  5
BE0
330
1F
100
AcDbEntity
  8
SERR-EST
100
AcDbLine
 10
1323.089925671261
 20
5444.32986834118
 30
0.0
 11
1323.089925671261
 21
4724.329868341168
 31
0.0
  0
LINE
  5
BE1
330
1F
100
AcDbEntity
  8
MUR-EST
100
AcDbLine
 10
1323.089925671261
 20
5464.329868341179
 30
0.0
 11
1323.089925671261
 21
5444.329868341178
 31
0.0
  0
LINE
  5
BE2
330
1F
100
AcDbEntity
  8
MUR-EST
100
AcDbLine
 10
1983.089925671265
 20
5285.139758225001
 30
0.0
 11
2003.089925671265
 21
5285.139758225001
 31
0.0
  0
LINE
  5
BE3
330
1F
100
AcDbEntity
  8
MUR-EST
100
AcDbLine
 10
1983.089925671265
 20
5364.329868341179
 30
0.0
 11
2003.089925671265
 21
5364.329868341179
 31
0.0
  0
LINE
  5
BE4
330
1F
100
AcDbEntity
  8
MUR-EST
100
AcDbLine
 10
1983.089925671272
 20
5444.32986834118
 30
0.0
 11
1983.089925671268
 21
5364.329868341179
 31
0.0
  0
LINE
  5
BE5
330
1F
100
AcDbEntity
  8
MUR-EST
100
AcDbLine
 10
1983.089925671268
 20
5285.139758225001
 30
0.0
 11
1983.089925671265
 21
4724.329868341168
 31
0.0
  0
LINE
  5
BE6
330
1F
100
AcDbEntity
  8
MUR-EST
100
AcDbLine
 10
2003.089925671265
 20
5285.139758225001
 30
0.0
 11
2003.089925671265
 21
4624.329868341169
 31
0.0
  0
LINE
  5
BE7
330
1F
100
AcDbEntity
  8
MUR-EST
100
AcDbLine
 10
1323.089925671261
 20
6174.329868341178
 30
0.0
 11
1323.089925671261
 21
6144.329868341177
 31
0.0
  0
LINE
  5
BE8
330
1F
100
AcDbEntity
  8
SERR-EST
100
AcDbLine
 10
1353.089925671265
 20
5834.329868341177
 30
0.0
 11
1353.089925671265
 21
5464.329868341179
 31
0.0
  0
LINE
  5
BE9
330
1F
100
AcDbEntity
  8
SERR-EST
100
AcDbLine
 10
1333.089925671268
 20
5834.329868341177
 30
0.0
 11
1333.089925671268
 21
5464.329868341179
 31
0.0
  0
LINE
  5
BEA
330
1F
100
AcDbEntity
  8
SERR-EST
100
AcDbLine
 10
1328.089925671265
 20
5834.329868341177
 30
0.0
 11
1328.089925671265
 21
5464.329868341179
 31
0.0
  0
LINE
  5
BEB
330
1F
100
AcDbEntity
  8
SERR-EST
100
AcDbLine
 10
1323.089925671261
 20
5834.329868341177
 30
0.0
 11
1323.089925671261
 21
5464.329868341179
 31
0.0
  0
LINE
  5
BEC
330
1F
100
AcDbEntity
  8
MUR-EST
100
AcDbLine
 10
1323.089925671261
 20
5854.331685161414
 30
0.0
 11
1323.089925671261
 21
5834.331685161415
 31
0.0
  0
LINE
  5
BED
330
1F
100
AcDbEntity
  8
MUR-EST
100
AcDbLine
 10
1407.881609287563
 20
5854.329868341176
 30
0.0
 11
1407.881609287563
 21
5834.329868341176
 31
0.0
  0
LINE
  5
BEE
330
1F
100
AcDbEntity
  8
MUR-EST
100
AcDbLine
 10
1487.881609287567
 20
5854.329868341176
 30
0.0
 11
1487.881609287567
 21
5834.329868341177
 31
0.0
  0
LINE
  5
BEF
330
1F
100
AcDbEntity
  8
MUR-EST
100
AcDbLine
 10
1487.881609287567
 20
5834.329868341177
 30
0.0
 11
1783.089925671276
 21
5834.329868341176
 31
0.0
  0
LINE
  5
BF0
330
1F
100
AcDbEntity
  8
SERR-INT
100
AcDbLine
 10
1407.881609287563
 20
5844.329868341177
 30
0.0
 11
1487.881609287567
 21
5844.329868341177
 31
0.0
  0
LINE
  5
BF1
330
1F
100
AcDbEntity
  8
MUR-EST
100
AcDbLine
 10
1983.089925671272
 20
5539.329868341178
 30
0.0
 11
2003.089925671265
 21
5539.329868341178
 31
0.0
  0
LINE
  5
BF2
330
1F
100
AcDbEntity
  8
MUR-EST
100
AcDbLine
 10
1983.089925671272
 20
5619.329868341178
 30
0.0
 11
2003.089925671265
 21
5619.329868341178
 31
0.0
  0
LINE
  5
BF3
330
1F
100
AcDbEntity
  8
MUR-EST
100
AcDbLine
 10
1793.089925671272
 20
5679.329868341176
 30
0.0
 11
1983.089925671265
 21
5679.329868341176
 31
0.0
  0
LINE
  5
BF4
330
1F
100
AcDbEntity
  8
MUR-EST
100
AcDbLine
 10
1793.089925671276
 20
5834.329868341177
 30
0.0
 11
1793.089925671272
 21
5679.329868341176
 31
0.0
  0
LINE
  5
BF5
330
1F
100
AcDbEntity
  8
MUR-EST
100
AcDbLine
 10
1793.089925671276
 20
5834.329868341177
 30
0.0
 11
1983.089925671265
 21
5834.329868341177
 31
0.0
  0
LINE
  5
BF6
330
1F
100
AcDbEntity
  8
MUR-EST
100
AcDbLine
 10
1983.089925671275
 20
5834.329868341177
 30
0.0
 11
1983.089925671275
 21
5809.329868341177
 31
0.0
  0
LINE
  5
BF7
330
1F
100
AcDbEntity
  8
MUR-EST
100
AcDbLine
 10
1983.089925671272
 20
5669.329868341177
 30
0.0
 11
1983.089925671272
 21
5619.329868341178
 31
0.0
  0
LINE
  5
BF8
330
1F
100
AcDbEntity
  8
MUR-EST
100
AcDbLine
 10
1983.089925671272
 20
5539.329868341178
 30
0.0
 11
1983.089925671272
 21
5464.329868341179
 31
0.0
  0
LINE
  5
BF9
330
1F
100
AcDbEntity
  8
MUR-EST
100
AcDbLine
 10
2003.089925671265
 20
5539.329868341178
 30
0.0
 11
2003.089925671265
 21
5364.329868341179
 31
0.0
  0
LINE
  5
BFA
330
1F
100
AcDbEntity
  8
MUR-EST
100
AcDbLine
 10
1983.089925671272
 20
5729.329868341176
 30
0.0
 11
2003.089925671265
 21
5729.329868341176
 31
0.0
  0
LINE
  5
BFB
330
1F
100
AcDbEntity
  8
MUR-EST
100
AcDbLine
 10
1983.089925671275
 20
5809.329868341177
 30
0.0
 11
2003.089925671265
 21
5809.329868341177
 31
0.0
  0
LINE
  5
BFC
330
1F
100
AcDbEntity
  8
MUR-EST
100
AcDbLine
 10
1983.089925671272
 20
5729.329868341176
 30
0.0
 11
1983.089925671272
 21
5679.329868341176
 31
0.0
  0
LINE
  5
BFD
330
1F
100
AcDbEntity
  8
MUR-EST
100
AcDbLine
 10
2003.089925671265
 20
5729.329868341176
 30
0.0
 11
2003.089925671265
 21
5619.329868341178
 31
0.0
  0
LINE
  5
BFE
330
1F
100
AcDbEntity
  8
SERR-INT
100
AcDbLine
 10
1993.089925671264
 20
5809.329868341177
 30
0.0
 11
1993.089925671268
 21
5729.329868341176
 31
0.0
  0
LINE
  5
BFF
330
1F
100
AcDbEntity
  8
SERR-INT
100
AcDbLine
 10
1993.089925671268
 20
5619.329868341178
 30
0.0
 11
1993.089925671264
 21
5539.329868341178
 31
0.0
  0
LINE
  5
C00
330
1F
100
AcDbEntity
  8
MUR-EST
100
AcDbLine
 10
1783.089925671276
 20
5834.329868341176
 30
0.0
 11
1783.089925671272
 21
5669.329868341177
 31
0.0
  0
LINE
  5
C01
330
1F
100
AcDbEntity
  8
MUR-EST
100
AcDbLine
 10
1783.089925671272
 20
5669.329868341177
 30
0.0
 11
1983.089925671272
 21
5669.329868341177
 31
0.0
  0
LINE
  5
C02
330
1F
100
AcDbEntity
  8
MUR-EST
100
AcDbLine
 10
1983.089925671279
 20
5904.329868341178
 30
0.0
 11
2003.089925671265
 21
5904.329868341176
 31
0.0
  0
LINE
  5
C03
330
1F
100
AcDbEntity
  8
MUR-EST
100
AcDbLine
 10
1983.089925671279
 20
5984.329868341177
 30
0.0
 11
2003.089925671265
 21
5984.329868341177
 31
0.0
  0
LINE
  5
C04
330
1F
100
AcDbEntity
  8
MUR-EST
100
AcDbLine
 10
2003.089925671265
 20
5904.329868341176
 30
0.0
 11
2003.089925671265
 21
5809.329868341177
 31
0.0
  0
LINE
  5
C05
330
1F
100
AcDbEntity
  8
MUR-EST
100
AcDbLine
 10
1900.430105320061
 20
6174.329868341178
 30
0.0
 11
1900.430105320064
 21
6144.329868341177
 31
0.0
  0
LINE
  5
C06
330
1F
100
AcDbEntity
  8
MUR-EST
100
AcDbLine
 10
1960.43010532006
 20
6174.329868341178
 30
0.0
 11
1960.430105320065
 21
6144.329868341177
 31
0.0
  0
LINE
  5
C07
330
1F
100
AcDbEntity
  8
MUR-EST
100
AcDbLine
 10
1960.43010532006
 20
6174.329868341178
 30
0.0
 11
2223.089925671257
 21
6174.329868341182
 31
0.0
  0
LINE
  5
C08
330
1F
100
AcDbEntity
  8
MUR-EST
100
AcDbLine
 10
1960.430105320065
 20
6144.329868341177
 30
0.0
 11
1983.242575492331
 21
6144.329868341177
 31
0.0
  0
LINE
  5
C09
330
1F
100
AcDbEntity
  8
SERR-EST
100
AcDbLine
 10
1900.430105320061
 20
6174.329868341178
 30
0.0
 11
1960.43010532006
 21
6174.329868341178
 31
0.0
  0
LINE
  5
C0A
330
1F
100
AcDbEntity
  8
SERR-EST
100
AcDbLine
 10
1960.430105320065
 20
6144.329868341177
 30
0.0
 11
1900.430105320064
 21
6144.329868341177
 31
0.0
  0
LINE
  5
C0B
330
1F
100
AcDbEntity
  8
SERR-EST
100
AcDbLine
 10
1900.430105320061
 20
6164.329868341178
 30
0.0
 11
1960.43010532006
 21
6164.329868341178
 31
0.0
  0
LINE
  5
C0C
330
1F
100
AcDbEntity
  8
SERR-EST
100
AcDbLine
 10
1900.430105320061
 20
6159.329868341178
 30
0.0
 11
1960.43010532006
 21
6159.329868341178
 31
0.0
  0
LINE
  5
C0D
330
1F
100
AcDbEntity
  8
MUR-EST
100
AcDbLine
 10
2003.089925671265
 20
6144.329868341177
 30
0.0
 11
2223.089925671257
 21
6144.329868341173
 31
0.0
  0
LINE
  5
C0E
330
1F
100
AcDbEntity
  8
SERR-INT
100
AcDbLine
 10
1993.089925671264
 20
5984.329868341177
 30
0.0
 11
1993.089925671268
 21
5904.329868341176
 31
0.0
  0
LINE
  5
C0F
330
1F
100
AcDbEntity
  8
SERR-EST
100
AcDbLine
 10
3359.166254083236
 20
3244.329868341171
 30
0.0
 11
3359.166254083236
 21
2544.329868341171
 31
0.0
  0
LINE
  5
C10
330
1F
100
AcDbEntity
  8
SERR-EST
100
AcDbLine
 10
3354.166254083235
 20
3244.329868341171
 30
0.0
 11
3354.166254083235
 21
2544.329868341171
 31
0.0
  0
LINE
  5
C11
330
1F
100
AcDbEntity
  8
SERR-EST
100
AcDbLine
 10
3349.166254083232
 20
3244.329868341171
 30
0.0
 11
3349.166254083232
 21
2544.329868341171
 31
0.0
  0
LINE
  5
C12
330
1F
100
AcDbEntity
  8
SERR-EST
100
AcDbLine
 10
3329.166254083236
 20
3244.329868341171
 30
0.0
 11
3329.166254083236
 21
2544.329868341171
 31
0.0
  0
LINE
  5
C13
330
1F
100
AcDbEntity
  8
MUR-EST
100
AcDbLine
 10
2679.166254083236
 20
2608.556973163707
 30
0.0
 11
2679.166254083236
 21
2544.329868341171
 31
0.0
  0
LINE
  5
C14
330
1F
100
AcDbEntity
  8
MUR-EST
100
AcDbLine
 10
2699.166254083236
 20
2608.556973163707
 30
0.0
 11
2699.166254083236
 21
2544.329868341171
 31
0.0
  0
LINE
  5
C15
330
1F
100
AcDbEntity
  8
MUR-EST
100
AcDbLine
 10
2679.166254083236
 20
4791.772384611653
 30
0.0
 11
2679.166254083236
 21
4358.556973163704
 31
0.0
  0
LINE
  5
C16
330
1F
100
AcDbEntity
  8
MUR-EST
100
AcDbLine
 10
2699.166254083236
 20
4704.329868341168
 30
0.0
 11
2699.166254083236
 21
4358.556973163704
 31
0.0
  0
LINE
  5
C17
330
1F
100
AcDbEntity
  8
SERR-EST
100
AcDbLine
 10
3359.166254083236
 20
4704.329868341168
 30
0.0
 11
3359.166254083236
 21
4004.32986834117
 31
0.0
  0
LINE
  5
C18
330
1F
100
AcDbEntity
  8
SERR-EST
100
AcDbLine
 10
3354.166254083232
 20
4704.329868341168
 30
0.0
 11
3354.166254083235
 21
4004.32986834117
 31
0.0
  0
LINE
  5
C19
330
1F
100
AcDbEntity
  8
SERR-EST
100
AcDbLine
 10
3349.166254083232
 20
4704.329868341168
 30
0.0
 11
3349.166254083232
 21
4004.32986834117
 31
0.0
  0
LINE
  5
C1A
330
1F
100
AcDbEntity
  8
SERR-EST
100
AcDbLine
 10
3329.166254083236
 20
4704.329868341168
 30
0.0
 11
3329.166254083236
 21
4004.32986834117
 31
0.0
  0
LINE
  5
C1B
330
1F
100
AcDbEntity
  8
MUR-EST
100
AcDbLine
 10
3359.166254083236
 20
4004.32986834117
 30
0.0
 11
2699.166254083236
 21
4004.32986834117
 31
0.0
  0
LINE
  5
C1C
330
1F
100
AcDbEntity
  8
MUR-EST
100
AcDbLine
 10
3359.166254083236
 20
3984.32986834117
 30
0.0
 11
2699.166254083236
 21
3984.32986834117
 31
0.0
  0
LINE
  5
C1D
330
1F
100
AcDbEntity
  8
MUR-EST
100
AcDbLine
 10
3359.166254083236
 20
3264.329868341171
 30
0.0
 11
2699.166254083236
 21
3264.329868341171
 31
0.0
  0
LINE
  5
C1E
330
1F
100
AcDbEntity
  8
MUR-EST
100
AcDbLine
 10
3359.166254083236
 20
3244.329868341171
 30
0.0
 11
2699.166254083236
 21
3244.329868341171
 31
0.0
  0
LINE
  5
C1F
330
1F
100
AcDbEntity
  8
SERR-EST
100
AcDbLine
 10
3359.166254083236
 20
3984.32986834117
 30
0.0
 11
3359.166254083236
 21
3264.329868341171
 31
0.0
  0
LINE
  5
C20
330
1F
100
AcDbEntity
  8
SERR-EST
100
AcDbLine
 10
3354.166254083235
 20
3984.32986834117
 30
0.0
 11
3354.166254083235
 21
3264.329868341171
 31
0.0
  0
LINE
  5
C21
330
1F
100
AcDbEntity
  8
SERR-EST
100
AcDbLine
 10
3349.166254083232
 20
3984.32986834117
 30
0.0
 11
3349.166254083232
 21
3264.329868341171
 31
0.0
  0
LINE
  5
C22
330
1F
100
AcDbEntity
  8
SERR-EST
100
AcDbLine
 10
3329.166254083236
 20
3984.32986834117
 30
0.0
 11
3329.166254083236
 21
3264.329868341171
 31
0.0
  0
LINE
  5
C23
330
1F
100
AcDbEntity
  8
MUR-EST
100
AcDbLine
 10
3359.166254083236
 20
3264.329868341171
 30
0.0
 11
3359.166254083236
 21
3244.329868341171
 31
0.0
  0
LINE
  5
C24
330
1F
100
AcDbEntity
  8
MUR-EST
100
AcDbLine
 10
3359.166254083236
 20
4004.32986834117
 30
0.0
 11
3359.166254083236
 21
3984.32986834117
 31
0.0
  0
LINE
  5
C25
330
1F
100
AcDbEntity
  8
MUR-EST
100
AcDbLine
 10
2699.166254083236
 20
3338.556973163707
 30
0.0
 11
2699.166254083236
 21
3264.329868341171
 31
0.0
  0
LINE
  5
C26
330
1F
100
AcDbEntity
  8
MUR-EST
100
AcDbLine
 10
2679.16625408324
 20
3338.556973163707
 30
0.0
 11
2679.16625408324
 21
2688.556973163707
 31
0.0
  0
LINE
  5
C27
330
1F
100
AcDbEntity
  8
SERR-INT
100
AcDbLine
 10
2689.166254083236
 20
2688.556973163707
 30
0.0
 11
2689.166254083236
 21
2608.556973163707
 31
0.0
  0
LINE
  5
C28
330
1F
100
AcDbEntity
  8
MUR-EST
100
AcDbLine
 10
2699.166254083236
 20
2608.556973163707
 30
0.0
 11
2679.166254083236
 21
2608.556973163707
 31
0.0
  0
LINE
  5
C29
330
1F
100
AcDbEntity
  8
MUR-EST
100
AcDbLine
 10
2699.166254083236
 20
3244.329868341171
 30
0.0
 11
2699.166254083236
 21
2688.556973163707
 31
0.0
  0
LINE
  5
C2A
330
1F
100
AcDbEntity
  8
MUR-EST
100
AcDbLine
 10
2699.166254083236
 20
2688.556973163707
 30
0.0
 11
2679.16625408324
 21
2688.556973163707
 31
0.0
  0
LINE
  5
C2B
330
1F
100
AcDbEntity
  8
MUR-EST
100
AcDbLine
 10
2699.166254083236
 20
3984.329868341169
 30
0.0
 11
2699.166254083221
 21
3418.556973163708
 31
0.0
  0
LINE
  5
C2C
330
1F
100
AcDbEntity
  8
MUR-EST
100
AcDbLine
 10
2699.166254083221
 20
3418.556973163708
 30
0.0
 11
2679.166254083236
 21
3418.556973163708
 31
0.0
  0
LINE
  5
C2D
330
1F
100
AcDbEntity
  8
MUR-EST
100
AcDbLine
 10
2699.166254083236
 20
3338.556973163707
 30
0.0
 11
2679.16625408324
 21
3338.556973163707
 31
0.0
  0
LINE
  5
C2E
330
1F
100
AcDbEntity
  8
SERR-INT
100
AcDbLine
 10
2689.166254083236
 20
3418.556973163708
 30
0.0
 11
2689.166254083236
 21
3338.556973163707
 31
0.0
  0
LINE
  5
C2F
330
1F
100
AcDbEntity
  8
MUR-EST
100
AcDbLine
 10
2721.826074434432
 20
6144.329868341177
 30
0.0
 11
2699.166254083225
 21
6144.329868341177
 31
0.0
  0
LINE
  5
C30
330
1F
100
AcDbEntity
  8
MUR-EST
100
AcDbLine
 10
2721.826074434436
 20
6174.329868341178
 30
0.0
 11
2559.166254083232
 21
6174.329868341182
 31
0.0
  0
LINE
  5
C31
330
1F
100
AcDbEntity
  8
MUR-EST
100
AcDbLine
 10
2719.166254083221
 20
6004.329868341177
 30
0.0
 11
2699.166254083236
 21
6004.329868341177
 31
0.0
  0
LINE
  5
C32
330
1F
100
AcDbEntity
  8
MUR-EST
100
AcDbLine
 10
2719.166254083221
 20
6014.329868341178
 30
0.0
 11
2699.166254083236
 21
6014.329868341178
 31
0.0
  0
LINE
  5
C33
330
1F
100
AcDbEntity
  8
MUR-EST
100
AcDbLine
 10
2819.166254083221
 20
5854.329868341176
 30
0.0
 11
2699.166254083236
 21
5854.329868341176
 31
0.0
  0
LINE
  5
C34
330
1F
100
AcDbEntity
  8
MUR-EST
100
AcDbLine
 10
2899.166254083225
 20
5669.329868341177
 30
0.0
 11
2699.166254083225
 21
5669.329868341177
 31
0.0
  0
LINE
  5
C35
330
1F
100
AcDbEntity
  8
MUR-EST
100
AcDbLine
 10
2889.166254083225
 20
5834.329868341177
 30
0.0
 11
2699.166254083236
 21
5834.329868341177
 31
0.0
  0
LINE
  5
C36
330
1F
100
AcDbEntity
  8
MUR-EST
100
AcDbLine
 10
2889.166254083225
 20
5679.329868341176
 30
0.0
 11
2699.166254083236
 21
5679.329868341176
 31
0.0
  0
LINE
  5
C37
330
1F
100
AcDbEntity
  8
MUR-EST
100
AcDbLine
 10
3359.166254083236
 20
5464.329868341179
 30
0.0
 11
2699.166254083236
 21
5464.329868341179
 31
0.0
  0
LINE
  5
C38
330
1F
100
AcDbEntity
  8
MUR-EST
100
AcDbLine
 10
3359.166254083236
 20
5444.329868341178
 30
0.0
 11
2699.166254083225
 21
5444.329868341178
 31
0.0
  0
LINE
  5
C39
330
1F
100
AcDbEntity
  8
MUR-EST
100
AcDbLine
 10
3359.166254083236
 20
4724.329868341168
 30
0.0
 11
2699.166254083236
 21
4724.329868341168
 31
0.0
  0
LINE
  5
C3A
330
1F
100
AcDbEntity
  8
SERR-EST
100
AcDbLine
 10
3359.166254083236
 20
5444.32986834118
 30
0.0
 11
3359.166254083236
 21
4724.329868341168
 31
0.0
  0
LINE
  5
C3B
330
1F
100
AcDbEntity
  8
SERR-EST
100
AcDbLine
 10
3354.166254083232
 20
5444.32986834118
 30
0.0
 11
3354.166254083232
 21
4724.329868341168
 31
0.0
  0
LINE
  5
C3C
330
1F
100
AcDbEntity
  8
SERR-EST
100
AcDbLine
 10
3349.166254083232
 20
5444.32986834118
 30
0.0
 11
3349.166254083232
 21
4724.329868341168
 31
0.0
  0
LINE
  5
C3D
330
1F
100
AcDbEntity
  8
SERR-EST
100
AcDbLine
 10
3329.166254083236
 20
5444.32986834118
 30
0.0
 11
3329.166254083236
 21
4724.329868341168
 31
0.0
  0
LINE
  5
C3E
330
1F
100
AcDbEntity
  8
MUR-EST
100
AcDbLine
 10
3359.166254083236
 20
4724.329868341168
 30
0.0
 11
3359.166254083236
 21
4704.329868341168
 31
0.0
  0
LINE
  5
C3F
330
1F
100
AcDbEntity
  8
MUR-EST
100
AcDbLine
 10
2829.166254083221
 20
6004.329868341177
 30
0.0
 11
2829.166254083221
 21
5893.242426962524
 31
0.0
  0
LINE
  5
C40
330
1F
100
AcDbEntity
  8
MUR-EST
100
AcDbLine
 10
2819.166254083221
 20
6004.329868341177
 30
0.0
 11
2819.166254083221
 21
5854.329868341176
 31
0.0
  0
LINE
  5
C41
330
1F
100
AcDbEntity
  8
SERR-EST
100
AcDbLine
 10
3359.166254083236
 20
6144.329868341177
 30
0.0
 11
3359.166254083236
 21
5854.329868341176
 31
0.0
  0
LINE
  5
C42
330
1F
100
AcDbEntity
  8
SERR-EST
100
AcDbLine
 10
3354.166254083235
 20
6144.329868341177
 30
0.0
 11
3354.166254083232
 21
5854.329868341176
 31
0.0
  0
LINE
  5
C43
330
1F
100
AcDbEntity
  8
SERR-EST
100
AcDbLine
 10
3349.166254083232
 20
6144.329868341177
 30
0.0
 11
3349.166254083232
 21
5854.329868341176
 31
0.0
  0
LINE
  5
C44
330
1F
100
AcDbEntity
  8
SERR-EST
100
AcDbLine
 10
3329.166254083236
 20
6144.329868341177
 30
0.0
 11
3329.166254083236
 21
5854.329868341176
 31
0.0
  0
LINE
  5
C45
330
1F
100
AcDbEntity
  8
MUR-EST
100
AcDbLine
 10
3194.374570466934
 20
5854.329868341176
 30
0.0
 11
2860.923568209062
 21
5854.329868341176
 31
0.0
  0
LINE
  5
C46
330
1F
100
AcDbEntity
  8
MUR-EST
100
AcDbLine
 10
3194.374570466934
 20
5834.329868341177
 30
0.0
 11
2899.166254083221
 21
5834.329868341176
 31
0.0
  0
LINE
  5
C47
330
1F
100
AcDbEntity
  8
SERR-EST
100
AcDbLine
 10
3359.166254083236
 20
5834.329868341177
 30
0.0
 11
3359.166254083236
 21
5464.329868341179
 31
0.0
  0
LINE
  5
C48
330
1F
100
AcDbEntity
  8
SERR-EST
100
AcDbLine
 10
3354.166254083232
 20
5834.329868341177
 30
0.0
 11
3354.166254083232
 21
5464.329868341179
 31
0.0
  0
LINE
  5
C49
330
1F
100
AcDbEntity
  8
SERR-EST
100
AcDbLine
 10
3349.166254083232
 20
5834.329868341177
 30
0.0
 11
3349.166254083232
 21
5464.329868341179
 31
0.0
  0
LINE
  5
C4A
330
1F
100
AcDbEntity
  8
SERR-EST
100
AcDbLine
 10
3329.166254083236
 20
5834.329868341177
 30
0.0
 11
3329.166254083236
 21
5464.329868341179
 31
0.0
  0
LINE
  5
C4B
330
1F
100
AcDbEntity
  8
MUR-EST
100
AcDbLine
 10
3359.166254083236
 20
5464.329868341179
 30
0.0
 11
3359.166254083236
 21
5444.329868341178
 31
0.0
  0
LINE
  5
C4C
330
1F
100
AcDbEntity
  8
SERR-INT
100
AcDbLine
 10
3274.374570466934
 20
5844.329868341177
 30
0.0
 11
3194.374570466934
 21
5844.329868341177
 31
0.0
  0
LINE
  5
C4D
330
1F
100
AcDbEntity
  8
MUR-EST
100
AcDbLine
 10
3194.374570466934
 20
5854.329868341176
 30
0.0
 11
3194.374570466934
 21
5834.329868341177
 31
0.0
  0
LINE
  5
C4E
330
1F
100
AcDbEntity
  8
MUR-EST
100
AcDbLine
 10
3274.374570466934
 20
5854.329868341176
 30
0.0
 11
3274.374570466934
 21
5834.329868341176
 31
0.0
  0
LINE
  5
C4F
330
1F
100
AcDbEntity
  8
MUR-EST
100
AcDbLine
 10
3359.166254083236
 20
5834.329868341177
 30
0.0
 11
3274.374570466934
 21
5834.329868341177
 31
0.0
  0
LINE
  5
C50
330
1F
100
AcDbEntity
  8
MUR-EST
100
AcDbLine
 10
3359.166254083236
 20
5854.329868341176
 30
0.0
 11
3274.374570466934
 21
5854.329868341176
 31
0.0
  0
LINE
  5
C51
330
1F
100
AcDbEntity
  8
MUR-EST
100
AcDbLine
 10
3359.166254083236
 20
5854.331685161414
 30
0.0
 11
3359.166254083236
 21
5834.331685161415
 31
0.0
  0
LINE
  5
C52
330
1F
100
AcDbEntity
  8
MUR-EST
100
AcDbLine
 10
2899.166254083221
 20
5834.329868341176
 30
0.0
 11
2899.166254083225
 21
5669.329868341177
 31
0.0
  0
LINE
  5
C53
330
1F
100
AcDbEntity
  8
MUR-EST
100
AcDbLine
 10
2889.166254083225
 20
5834.329868341177
 30
0.0
 11
2889.166254083225
 21
5679.329868341176
 31
0.0
  0
LINE
  5
C54
330
1F
100
AcDbEntity
  8
MUR-EST
100
AcDbLine
 10
2860.923568209065
 20
5893.242426962524
 30
0.0
 11
2860.923568209062
 21
5854.329868341176
 31
0.0
  0
LINE
  5
C55
330
1F
100
AcDbEntity
  8
MUR-EST
100
AcDbLine
 10
2829.166254083221
 20
5893.242426962524
 30
0.0
 11
2860.923568209065
 21
5893.242426962524
 31
0.0
  0
LINE
  5
C56
330
1F
100
AcDbEntity
  8
MUR-EST
100
AcDbLine
 10
3259.166254083218
 20
6144.329868341177
 30
0.0
 11
3159.166254083218
 21
6144.329868341177
 31
0.0
  0
LINE
  5
C57
330
1F
100
AcDbEntity
  8
SERR-INT
100
AcDbLine
 10
3239.166254083222
 20
6009.329868341177
 30
0.0
 11
3179.166254083218
 21
6009.329868341177
 31
0.0
  0
LINE
  5
C58
330
1F
100
AcDbEntity
  8
MUR-EST
100
AcDbLine
 10
3359.166254083236
 20
6174.329868341178
 30
0.0
 11
2781.826074434436
 21
6174.329868341178
 31
0.0
  0
LINE
  5
C59
330
1F
100
AcDbEntity
  8
MUR-EST
100
AcDbLine
 10
3259.166254083218
 20
6144.329868341177
 30
0.0
 11
3259.166254083218
 21
6014.329868341178
 31
0.0
  0
LINE
  5
C5A
330
1F
100
AcDbEntity
  8
MUR-EST
100
AcDbLine
 10
3269.166254083218
 20
6144.329868341177
 30
0.0
 11
3269.166254083214
 21
6004.329868341177
 31
0.0
  0
LINE
  5
C5B
330
1F
100
AcDbEntity
  8
MUR-EST
100
AcDbLine
 10
3269.166254083214
 20
6004.329868341177
 30
0.0
 11
3239.166254083222
 21
6004.329868341177
 31
0.0
  0
LINE
  5
C5C
330
1F
100
AcDbEntity
  8
MUR-EST
100
AcDbLine
 10
3259.166254083218
 20
6014.329868341178
 30
0.0
 11
3239.166254083222
 21
6014.329868341178
 31
0.0
  0
LINE
  5
C5D
330
1F
100
AcDbEntity
  8
MUR-EST
100
AcDbLine
 10
3239.166254083222
 20
6014.329868341178
 30
0.0
 11
3239.166254083222
 21
6004.329868341177
 31
0.0
  0
LINE
  5
C5E
330
1F
100
AcDbEntity
  8
MUR-EST
100
AcDbLine
 10
3359.166254083236
 20
6144.329868341177
 30
0.0
 11
3269.166254083218
 21
6144.329868341177
 31
0.0
  0
LINE
  5
C5F
330
1F
100
AcDbEntity
  8
MUR-EST
100
AcDbLine
 10
3359.166254083236
 20
6174.329868341178
 30
0.0
 11
3359.166254083236
 21
6144.329868341177
 31
0.0
  0
LINE
  5
C60
330
1F
100
AcDbEntity
  8
MUR-EST
100
AcDbLine
 10
2819.166254083217
 20
6119.740405367519
 30
0.0
 11
2819.166254083221
 21
6014.329868341178
 31
0.0
  0
LINE
  5
C61
330
1F
100
AcDbEntity
  8
MUR-EST
100
AcDbLine
 10
3159.166254083218
 20
6144.329868341177
 30
0.0
 11
3159.166254083218
 21
6014.329868341178
 31
0.0
  0
LINE
  5
C62
330
1F
100
AcDbEntity
  8
MUR-EST
100
AcDbLine
 10
3149.166254083221
 20
6144.329868341177
 30
0.0
 11
3149.166254083221
 21
6014.329868341178
 31
0.0
  0
LINE
  5
C63
330
1F
100
AcDbEntity
  8
MUR-EST
100
AcDbLine
 10
3049.166254083222
 20
6144.329868341177
 30
0.0
 11
3049.166254083222
 21
6014.329868341178
 31
0.0
  0
LINE
  5
C64
330
1F
100
AcDbEntity
  8
MUR-EST
100
AcDbLine
 10
3039.166254083222
 20
6144.329868341177
 30
0.0
 11
3039.166254083222
 21
6014.329868341178
 31
0.0
  0
LINE
  5
C65
330
1F
100
AcDbEntity
  8
MUR-EST
100
AcDbLine
 10
2939.166254083222
 20
6144.329868341177
 30
0.0
 11
2939.166254083222
 21
6014.329868341178
 31
0.0
  0
LINE
  5
C66
330
1F
100
AcDbEntity
  8
MUR-EST
100
AcDbLine
 10
2929.166254083222
 20
6144.329868341177
 30
0.0
 11
2929.166254083222
 21
6014.329868341178
 31
0.0
  0
LINE
  5
C67
330
1F
100
AcDbEntity
  8
MUR-EST
100
AcDbLine
 10
2829.166254083221
 20
6144.329868341177
 30
0.0
 11
2829.166254083221
 21
6014.329868341178
 31
0.0
  0
LINE
  5
C68
330
1F
100
AcDbEntity
  8
MUR-EST
100
AcDbLine
 10
2959.166254083218
 20
6014.329868341178
 30
0.0
 11
2939.166254083222
 21
6014.329868341178
 31
0.0
  0
LINE
  5
C69
330
1F
100
AcDbEntity
  8
MUR-EST
100
AcDbLine
 10
2959.166254083218
 20
6004.329868341177
 30
0.0
 11
2909.166254083221
 21
6004.329868341177
 31
0.0
  0
LINE
  5
C6A
330
1F
100
AcDbEntity
  8
SERR-INT
100
AcDbLine
 10
3129.166254083222
 20
6009.329868341177
 30
0.0
 11
3069.166254083218
 21
6009.329868341177
 31
0.0
  0
LINE
  5
C6B
330
1F
100
AcDbEntity
  8
SERR-INT
100
AcDbLine
 10
3019.166254083221
 20
6009.329868341177
 30
0.0
 11
2959.166254083218
 21
6009.329868341177
 31
0.0
  0
LINE
  5
C6C
330
1F
100
AcDbEntity
  8
MUR-EST
100
AcDbLine
 10
3039.166254083222
 20
6014.329868341178
 30
0.0
 11
3019.166254083221
 21
6014.329868341178
 31
0.0
  0
LINE
  5
C6D
330
1F
100
AcDbEntity
  8
MUR-EST
100
AcDbLine
 10
3069.166254083218
 20
6014.329868341178
 30
0.0
 11
3049.166254083222
 21
6014.329868341178
 31
0.0
  0
LINE
  5
C6E
330
1F
100
AcDbEntity
  8
MUR-EST
100
AcDbLine
 10
3149.166254083221
 20
6014.329868341178
 30
0.0
 11
3129.166254083222
 21
6014.329868341178
 31
0.0
  0
LINE
  5
C6F
330
1F
100
AcDbEntity
  8
MUR-EST
100
AcDbLine
 10
3179.166254083218
 20
6014.329868341178
 30
0.0
 11
3159.166254083218
 21
6014.329868341178
 31
0.0
  0
LINE
  5
C70
330
1F
100
AcDbEntity
  8
MUR-EST
100
AcDbLine
 10
3129.166254083222
 20
6014.329868341178
 30
0.0
 11
3129.166254083222
 21
6004.329868341177
 31
0.0
  0
LINE
  5
C71
330
1F
100
AcDbEntity
  8
MUR-EST
100
AcDbLine
 10
3069.166254083218
 20
6014.329868341178
 30
0.0
 11
3069.166254083218
 21
6004.329868341177
 31
0.0
  0
LINE
  5
C72
330
1F
100
AcDbEntity
  8
MUR-EST
100
AcDbLine
 10
3019.166254083221
 20
6014.329868341178
 30
0.0
 11
3019.166254083221
 21
6004.329868341177
 31
0.0
  0
LINE
  5
C73
330
1F
100
AcDbEntity
  8
MUR-EST
100
AcDbLine
 10
2959.166254083218
 20
6014.329868341178
 30
0.0
 11
2959.166254083218
 21
6004.329868341177
 31
0.0
  0
LINE
  5
C74
330
1F
100
AcDbEntity
  8
MUR-EST
100
AcDbLine
 10
3069.166254083218
 20
6004.329868341177
 30
0.0
 11
3019.166254083221
 21
6004.329868341177
 31
0.0
  0
LINE
  5
C75
330
1F
100
AcDbEntity
  8
MUR-EST
100
AcDbLine
 10
3179.166254083218
 20
6004.329868341177
 30
0.0
 11
3129.166254083222
 21
6004.329868341177
 31
0.0
  0
LINE
  5
C76
330
1F
100
AcDbEntity
  8
MUR-EST
100
AcDbLine
 10
3179.166254083218
 20
6014.329868341178
 30
0.0
 11
3179.166254083218
 21
6004.329868341177
 31
0.0
  0
LINE
  5
C77
330
1F
100
AcDbEntity
  8
SERR-INT
100
AcDbLine
 10
2909.166254083221
 20
6009.329868341177
 30
0.0
 11
2849.166254083221
 21
6009.329868341177
 31
0.0
  0
LINE
  5
C78
330
1F
100
AcDbEntity
  8
SERR-INT
100
AcDbLine
 10
2799.166254083222
 20
6009.329868341177
 30
0.0
 11
2719.166254083221
 21
6009.329868341177
 31
0.0
  0
LINE
  5
C79
330
1F
100
AcDbEntity
  8
MUR-EST
100
AcDbLine
 10
2819.166254083221
 20
6004.329868341177
 30
0.0
 11
2799.166254083222
 21
6004.329868341177
 31
0.0
  0
LINE
  5
C7A
330
1F
100
AcDbEntity
  8
MUR-EST
100
AcDbLine
 10
2849.166254083221
 20
6004.329868341177
 30
0.0
 11
2829.166254083221
 21
6004.329868341177
 31
0.0
  0
LINE
  5
C7B
330
1F
100
AcDbEntity
  8
MUR-EST
100
AcDbLine
 10
2819.166254083221
 20
6014.329868341178
 30
0.0
 11
2799.166254083222
 21
6014.329868341178
 31
0.0
  0
LINE
  5
C7C
330
1F
100
AcDbEntity
  8
MUR-EST
100
AcDbLine
 10
2849.166254083221
 20
6014.329868341178
 30
0.0
 11
2829.166254083221
 21
6014.329868341178
 31
0.0
  0
LINE
  5
C7D
330
1F
100
AcDbEntity
  8
MUR-EST
100
AcDbLine
 10
2929.166254083222
 20
6014.329868341178
 30
0.0
 11
2909.166254083221
 21
6014.329868341178
 31
0.0
  0
LINE
  5
C7E
330
1F
100
AcDbEntity
  8
MUR-EST
100
AcDbLine
 10
2909.166254083221
 20
6014.329868341178
 30
0.0
 11
2909.166254083221
 21
6004.329868341177
 31
0.0
  0
LINE
  5
C7F
330
1F
100
AcDbEntity
  8
MUR-EST
100
AcDbLine
 10
2849.166254083221
 20
6014.329868341178
 30
0.0
 11
2849.166254083221
 21
6004.329868341177
 31
0.0
  0
LINE
  5
C80
330
1F
100
AcDbEntity
  8
MUR-EST
100
AcDbLine
 10
2799.166254083222
 20
6014.329868341178
 30
0.0
 11
2799.166254083222
 21
6004.329868341177
 31
0.0
  0
LINE
  5
C81
330
1F
100
AcDbEntity
  8
MUR-EST
100
AcDbLine
 10
2719.166254083221
 20
6014.329868341178
 30
0.0
 11
2719.166254083221
 21
6004.329868341177
 31
0.0
  0
LINE
  5
C82
330
1F
100
AcDbEntity
  8
MUR-EST
100
AcDbLine
 10
3039.166254083222
 20
6144.329868341177
 30
0.0
 11
2939.166254083222
 21
6144.329868341177
 31
0.0
  0
LINE
  5
C83
330
1F
100
AcDbEntity
  8
MUR-EST
100
AcDbLine
 10
3149.166254083221
 20
6144.329868341177
 30
0.0
 11
3049.166254083222
 21
6144.329868341177
 31
0.0
  0
LINE
  5
C84
330
1F
100
AcDbEntity
  8
SERR-EST
100
AcDbLine
 10
2781.826074434436
 20
6174.329868341178
 30
0.0
 11
2721.826074434436
 21
6174.329868341178
 31
0.0
  0
LINE
  5
C85
330
1F
100
AcDbEntity
  8
SERR-EST
100
AcDbLine
 10
2721.826074434432
 20
6144.329868341177
 30
0.0
 11
2781.826074434432
 21
6144.329868341177
 31
0.0
  0
LINE
  5
C86
330
1F
100
AcDbEntity
  8
SERR-EST
100
AcDbLine
 10
2781.826074434436
 20
6164.329868341178
 30
0.0
 11
2721.826074434436
 21
6164.329868341178
 31
0.0
  0
LINE
  5
C87
330
1F
100
AcDbEntity
  8
SERR-EST
100
AcDbLine
 10
2781.826074434436
 20
6159.329868341178
 30
0.0
 11
2721.826074434436
 21
6159.329868341178
 31
0.0
  0
LINE
  5
C88
330
1F
100
AcDbEntity
  8
MUR-EST
100
AcDbLine
 10
2781.826074434436
 20
6174.329868341178
 30
0.0
 11
2781.826074434432
 21
6144.329868341177
 31
0.0
  0
LINE
  5
C89
330
1F
100
AcDbEntity
  8
MUR-EST
100
AcDbLine
 10
2721.826074434436
 20
6174.329868341178
 30
0.0
 11
2721.826074434432
 21
6144.329868341177
 31
0.0
  0
LINE
  5
C8A
330
1F
100
AcDbEntity
  8
MUR-EST
100
AcDbLine
 10
2797.471732543704
 20
6144.329868341177
 30
0.0
 11
2781.826074434432
 21
6144.329868341177
 31
0.0
  0
LINE
  5
C8B
330
1F
100
AcDbEntity
  8
MUR-EST
100
AcDbLine
 10
2819.166254083217
 20
6119.740405367519
 30
0.0
 11
2797.471732543704
 21
6119.740405367519
 31
0.0
  0
LINE
  5
C8C
330
1F
100
AcDbEntity
  8
MUR-EST
100
AcDbLine
 10
2797.471732543704
 20
6119.740405367519
 30
0.0
 11
2797.471732543704
 21
6144.329868341177
 31
0.0
  0
LINE
  5
C8D
330
1F
100
AcDbEntity
  8
MUR-EST
100
AcDbLine
 10
2929.166254083222
 20
6144.329868341177
 30
0.0
 11
2829.166254083221
 21
6144.329868341177
 31
0.0
  0
LINE
  5
C8E
330
1F
100
AcDbEntity
  8
MUR-EST
100
AcDbLine
 10
2679.166254083236
 20
5539.329868341178
 30
0.0
 11
2679.166254083236
 21
4871.772384611655
 31
0.0
  0
LINE
  5
C8F
330
1F
100
AcDbEntity
  8
MUR-EST
100
AcDbLine
 10
2699.166254083225
 20
5444.329868341178
 30
0.0
 11
2699.166254083236
 21
4871.144923943593
 31
0.0
  0
LINE
  5
C90
330
1F
100
AcDbEntity
  8
MUR-EST
100
AcDbLine
 10
2679.166254083236
 20
5904.329868341176
 30
0.0
 11
2679.166254083236
 21
5809.329868341177
 31
0.0
  0
LINE
  5
C91
330
1F
100
AcDbEntity
  8
MUR-EST
100
AcDbLine
 10
2699.166254083221
 20
5904.329868341178
 30
0.0
 11
2699.166254083225
 21
5854.329868341176
 31
0.0
  0
LINE
  5
C92
330
1F
100
AcDbEntity
  8
MUR-EST
100
AcDbLine
 10
2679.166254083236
 20
5729.329868341176
 30
0.0
 11
2679.166254083236
 21
5619.329868341178
 31
0.0
  0
LINE
  5
C93
330
1F
100
AcDbEntity
  8
MUR-EST
100
AcDbLine
 10
2699.166254083225
 20
5729.329868341176
 30
0.0
 11
2699.166254083225
 21
5679.329868341176
 31
0.0
  0
LINE
  5
C94
330
1F
100
AcDbEntity
  8
MUR-EST
100
AcDbLine
 10
2699.166254083225
 20
5669.329868341177
 30
0.0
 11
2699.166254083225
 21
5619.329868341178
 31
0.0
  0
LINE
  5
C95
330
1F
100
AcDbEntity
  8
SERR-INT
100
AcDbLine
 10
2689.166254083232
 20
5619.329868341178
 30
0.0
 11
2689.166254083236
 21
5539.329868341178
 31
0.0
  0
LINE
  5
C96
330
1F
100
AcDbEntity
  8
MUR-EST
100
AcDbLine
 10
2699.166254083225
 20
5539.329868341178
 30
0.0
 11
2679.166254083236
 21
5539.329868341178
 31
0.0
  0
LINE
  5
C97
330
1F
100
AcDbEntity
  8
MUR-EST
100
AcDbLine
 10
2699.166254083225
 20
5539.329868341178
 30
0.0
 11
2699.166254083225
 21
5464.329868341179
 31
0.0
  0
LINE
  5
C98
330
1F
100
AcDbEntity
  8
MUR-EST
100
AcDbLine
 10
2699.166254083225
 20
5619.329868341178
 30
0.0
 11
2679.166254083236
 21
5619.329868341178
 31
0.0
  0
LINE
  5
C99
330
1F
100
AcDbEntity
  8
SERR-INT
100
AcDbLine
 10
2689.166254083236
 20
5809.329868341177
 30
0.0
 11
2689.166254083232
 21
5729.329868341176
 31
0.0
  0
LINE
  5
C9A
330
1F
100
AcDbEntity
  8
MUR-EST
100
AcDbLine
 10
2699.166254083225
 20
5834.329868341177
 30
0.0
 11
2699.166254083225
 21
5809.329868341177
 31
0.0
  0
LINE
  5
C9B
330
1F
100
AcDbEntity
  8
MUR-EST
100
AcDbLine
 10
2699.166254083225
 20
5729.329868341176
 30
0.0
 11
2679.166254083236
 21
5729.329868341176
 31
0.0
  0
LINE
  5
C9C
330
1F
100
AcDbEntity
  8
MUR-EST
100
AcDbLine
 10
2699.166254083225
 20
5809.329868341177
 30
0.0
 11
2679.166254083236
 21
5809.329868341177
 31
0.0
  0
LINE
  5
C9D
330
1F
100
AcDbEntity
  8
MUR-EST
100
AcDbLine
 10
2679.166254083236
 20
6144.329868341177
 30
0.0
 11
2679.166254083236
 21
5984.329868341177
 31
0.0
  0
LINE
  5
C9E
330
1F
100
AcDbEntity
  8
MUR-EST
100
AcDbLine
 10
2699.166254083225
 20
6144.329868341177
 30
0.0
 11
2699.166254083221
 21
6014.329868341178
 31
0.0
  0
LINE
  5
C9F
330
1F
100
AcDbEntity
  8
SERR-INT
100
AcDbLine
 10
2689.166254083236
 20
5984.329868341177
 30
0.0
 11
2689.166254083232
 21
5904.329868341176
 31
0.0
  0
LINE
  5
CA0
330
1F
100
AcDbEntity
  8
MUR-EST
100
AcDbLine
 10
2699.166254083221
 20
6004.329868341177
 30
0.0
 11
2699.166254083221
 21
5984.329868341177
 31
0.0
  0
LINE
  5
CA1
330
1F
100
AcDbEntity
  8
MUR-EST
100
AcDbLine
 10
2699.166254083221
 20
5904.329868341178
 30
0.0
 11
2679.166254083236
 21
5904.329868341176
 31
0.0
  0
LINE
  5
CA2
330
1F
100
AcDbEntity
  8
MUR-EST
100
AcDbLine
 10
2699.166254083221
 20
5984.329868341177
 30
0.0
 11
2679.166254083236
 21
5984.329868341177
 31
0.0
  0
LINE
  5
CA3
330
1F
100
AcDbEntity
  8
MUR-EST
100
AcDbLine
 10
2679.166254083236
 20
6144.329868341177
 30
0.0
 11
2559.166254083232
 21
6144.329868341176
 31
0.0
  0
LINE
  5
CA4
330
1F
100
AcDbEntity
  8
SERR-INT
100
AcDbLine
 10
2799.58583881647
 20
1334.329868341211
 30
0.0
 11
2879.585838816474
 21
1334.329868341211
 31
0.0
  0
ARC
  5
CA5
330
1F
100
AcDbEntity
  8
SERR-INT
100
AcDbCircle
 10
2799.58583881647
 20
1334.329868341211
 30
0.0
 40
79.99999999999971
100
AcDbArc
 50
272.2844074992179
 51
0.0
  0
LINE
  5
CA6
330
1F
100
AcDbEntity
  8
SERR-INT
100
AcDbLine
 10
2689.166254083236
 20
2608.556973163707
 30
0.0
 11
2769.166254083236
 21
2608.556973163707
 31
0.0
  0
ARC
  5
CA7
330
1F
100
AcDbEntity
  8
SERR-INT
100
AcDbCircle
 10
2689.166254083236
 20
2608.556973163707
 30
0.0
 40
80.00000000000007
100
AcDbArc
 50
0.0
 51
90.0
  0
LINE
  5
CA8
330
1F
100
AcDbEntity
  8
SERR-INT
100
AcDbLine
 10
1993.089925671264
 20
3904.329868341171
 30
0.0
 11
1913.089925671261
 21
3904.329868341171
 31
0.0
  0
LINE
  5
CA9
330
1F
100
AcDbEntity
  8
SERR-INT
100
AcDbLine
 10
1993.089925671264
 20
3164.329868341171
 30
0.0
 11
1913.089925671261
 21
3164.329868341171
 31
0.0
  0
ARC
  5
CAA
330
1F
100
AcDbEntity
  8
SERR-INT
100
AcDbCircle
 10
1993.089925671264
 20
3164.329868341171
 30
0.0
 40
80.00000000000001
100
AcDbArc
 50
180.0
 51
270.0
  0
ARC
  5
CAB
330
1F
100
AcDbEntity
  8
SERR-INT
100
AcDbCircle
 10
1993.089925671264
 20
3904.329868341171
 30
0.0
 40
80.00000000000007
100
AcDbArc
 50
180.0
 51
270.0
  0
LINE
  5
CAC
330
1F
100
AcDbEntity
  8
SERR-INT
100
AcDbLine
 10
2689.166254083236
 20
3338.556973163707
 30
0.0
 11
2769.166254083236
 21
3338.556973163707
 31
0.0
  0
ARC
  5
CAD
330
1F
100
AcDbEntity
  8
SERR-INT
100
AcDbCircle
 10
2689.166254083236
 20
3338.556973163707
 30
0.0
 40
80.00000000000007
100
AcDbArc
 50
0.0
 51
90.0
  0
LINE
  5
CAE
330
1F
100
AcDbEntity
  8
SERR-INT
100
AcDbLine
 10
2689.16625408324
 20
4278.556973163705
 30
0.0
 11
2769.16625408324
 21
4278.556973163705
 31
0.0
  0
ARC
  5
CAF
330
1F
100
AcDbEntity
  8
SERR-INT
100
AcDbCircle
 10
2689.16625408324
 20
4278.556973163705
 30
0.0
 40
80.00000000000007
100
AcDbArc
 50
0.0
 51
90.0
  0
LINE
  5
CB0
330
1F
100
AcDbEntity
  8
MUR-EST
100
AcDbLine
 10
2699.166254083236
 20
4358.556973163704
 30
0.0
 11
2679.166254083243
 21
4358.556973163704
 31
0.0
  0
LINE
  5
CB1
330
1F
100
AcDbEntity
  8
MUR-EST
100
AcDbLine
 10
2699.166254083236
 20
4278.556973163705
 30
0.0
 11
2679.16625408324
 21
4278.556973163705
 31
0.0
  0
LINE
  5
CB2
330
1F
100
AcDbEntity
  8
SERR-INT
100
AcDbLine
 10
2689.16625408324
 20
4358.556973163704
 30
0.0
 11
2689.16625408324
 21
4278.556973163705
 31
0.0
  0
LINE
  5
CB3
330
1F
100
AcDbEntity
  8
MUR-EST
100
AcDbLine
 10
2679.166254083236
 20
4278.556973163705
 30
0.0
 11
2679.166254083236
 21
3418.556973163708
 31
0.0
  0
LINE
  5
CB4
330
1F
100
AcDbEntity
  8
MUR-EST
100
AcDbLine
 10
2699.166254083236
 20
4278.556973163705
 30
0.0
 11
2699.166254083236
 21
4004.32986834117
 31
0.0
  0
LINE
  5
CB5
330
1F
100
AcDbEntity
  8
SERR-INT
100
AcDbLine
 10
2689.16625408324
 20
4871.772384611655
 30
0.0
 11
2689.16625408324
 21
4791.772384611655
 31
0.0
  0
LINE
  5
CB6
330
1F
100
AcDbEntity
  8
MUR-EST
100
AcDbLine
 10
2699.166254083236
 20
4791.772384611655
 30
0.0
 11
2679.166254083236
 21
4791.772384611653
 31
0.0
  0
LINE
  5
CB7
330
1F
100
AcDbEntity
  8
MUR-EST
100
AcDbLine
 10
2699.166254083236
 20
4871.772384611655
 30
0.0
 11
2679.166254083236
 21
4871.772384611655
 31
0.0
  0
ARC
  5
CB8
330
1F
100
AcDbEntity
  8
SERR-INT
100
AcDbCircle
 10
2689.16625408324
 20
4791.772384611655
 30
0.0
 40
80.00000000000007
100
AcDbArc
 50
0.0
 51
90.0
  0
LINE
  5
CB9
330
1F
100
AcDbEntity
  8
SERR-INT
100
AcDbLine
 10
2689.16625408324
 20
4791.772384611655
 30
0.0
 11
2769.16625408324
 21
4791.772384611655
 31
0.0
  0
LINE
  5
CBA
330
1F
100
AcDbEntity
  8
MUR-EST
100
AcDbLine
 10
2699.166254083236
 20
4791.772384611653
 30
0.0
 11
2699.166254083236
 21
4724.329868341168
 31
0.0
  0
LINE
  5
CBB
330
1F
100
AcDbEntity
  8
SERR-INT
100
AcDbLine
 10
1993.089925671268
 20
4624.329868341169
 30
0.0
 11
1913.089925671265
 21
4624.329868341169
 31
0.0
  0
ARC
  5
CBC
330
1F
100
AcDbEntity
  8
SERR-INT
100
AcDbCircle
 10
1993.089925671268
 20
4624.329868341169
 30
0.0
 40
80.00000000000007
100
AcDbArc
 50
180.0
 51
270.0
  0
LINE
  5
CBD
330
1F
100
AcDbEntity
  8
SERR-INT
100
AcDbLine
 10
1407.881609287563
 20
5844.329868341177
 30
0.0
 11
1407.881609287563
 21
5764.329868341175
 31
0.0
  0
ARC
  5
CBE
330
1F
100
AcDbEntity
  8
SERR-INT
100
AcDbCircle
 10
1407.881609287563
 20
5844.329868341177
 30
0.0
 40
80.00000000000113
100
AcDbArc
 50
270.0
 51
0.0
  0
ARC
  5
CBF
330
1F
100
AcDbEntity
  8
SERR-INT
100
AcDbCircle
 10
2689.166254083236
 20
5729.329868341176
 30
0.0
 40
80.00000000000007
100
AcDbArc
 50
0.0
 51
90.0
  0
LINE
  5
CC0
330
1F
100
AcDbEntity
  8
SERR-INT
100
AcDbLine
 10
2689.166254083236
 20
5729.329868341176
 30
0.0
 11
2769.166254083236
 21
5729.329868341176
 31
0.0
  0
ARC
  5
CC1
330
1F
100
AcDbEntity
  8
SERR-INT
100
AcDbCircle
 10
3244.489165488037
 20
6014.263535570928
 30
0.0
 40
65.3587535363939
100
AcDbArc
 50
184.3515806712183
 51
265.3285750880441
  0
LINE
  5
CC2
330
1F
100
AcDbEntity
  8
SERR-INT
100
AcDbLine
 10
3239.166254083222
 20
6009.329868341177
 30
0.0
 11
3239.166254083222
 21
5949.121895447213
 31
0.0
  0
ARC
  5
CC3
330
1F
100
AcDbEntity
  8
SERR-INT
100
AcDbCircle
 10
3024.489165488041
 20
6014.263535570928
 30
0.0
 40
65.3587535363939
100
AcDbArc
 50
184.3515806712183
 51
265.3285750880441
  0
LINE
  5
CC4
330
1F
100
AcDbEntity
  8
SERR-INT
100
AcDbLine
 10
3019.166254083221
 20
6009.329868341177
 30
0.0
 11
3019.166254083221
 21
5949.121895447213
 31
0.0
  0
LINE
  5
CC5
330
1F
100
AcDbEntity
  8
SERR-INT
100
AcDbLine
 10
3129.166254083222
 20
6009.329868341177
 30
0.0
 11
3129.166254083222
 21
5949.121895447213
 31
0.0
  0
ARC
  5
CC6
330
1F
100
AcDbEntity
  8
SERR-INT
100
AcDbCircle
 10
3134.48916548804
 20
6014.263535570928
 30
0.0
 40
65.3587535363939
100
AcDbArc
 50
184.3515806712183
 51
265.3285750880441
  0
LINE
  5
CC7
330
1F
100
AcDbEntity
  8
SERR-INT
100
AcDbLine
 10
2909.166254083221
 20
6009.329868341177
 30
0.0
 11
2909.166254083221
 21
5949.121895447215
 31
0.0
  0
ARC
  5
CC8
330
1F
100
AcDbEntity
  8
SERR-INT
100
AcDbCircle
 10
2914.489165488041
 20
6014.263535570928
 30
0.0
 40
65.3587535363939
100
AcDbArc
 50
184.3515806712183
 51
265.3285750880441
  0
ARC
  5
CC9
330
1F
100
AcDbEntity
  8
SERR-INT
100
AcDbCircle
 10
3274.374570466934
 20
5844.329868341177
 30
0.0
 40
80.00000000000113
100
AcDbArc
 50
180.0
 51
270.0
  0
LINE
  5
CCA
330
1F
100
AcDbEntity
  8
SERR-INT
100
AcDbLine
 10
3274.374570466934
 20
5844.329868341177
 30
0.0
 11
3274.374570466934
 21
5764.329868341175
 31
0.0
  0
LINE
  5
CCB
330
1F
100
AcDbEntity
  8
MUR-EST
100
AcDbLine
 10
3135.009322291014
 20
1364.329868341211
 30
0.0
 11
3135.009322291014
 21
614.329868341209
 31
0.0
  0
LINE
  5
CCC
330
1F
100
AcDbEntity
  8
MUR-EST
100
AcDbLine
 10
3150.009322291014
 20
1814.3298683412
 30
0.0
 11
3150.009322291014
 21
1584.32986834121
 31
0.0
  0
LINE
  5
CCD
330
1F
100
AcDbEntity
  8
MUR-EST
100
AcDbLine
 10
2645.009322291014
 20
1784.329868341212
 30
0.0
 11
2645.00932229101
 21
1384.329868341211
 31
0.0
  0
LINE
  5
CCE
330
1F
100
AcDbEntity
  8
MUR-EST
100
AcDbLine
 10
2635.009322291014
 20
1784.329868341174
 30
0.0
 11
2635.00932229101
 21
1364.329868341211
 31
0.0
  0
LINE
  5
CCF
330
1F
100
AcDbEntity
  8
MUR-EST
100
AcDbLine
 10
2635.009322291014
 20
1784.329868341174
 30
0.0
 11
2579.166254083236
 21
1784.329868341174
 31
0.0
  0
LINE
  5
CD0
330
1F
100
AcDbEntity
  8
MUR-EST
100
AcDbLine
 10
2038.089925671261
 20
1814.329868341176
 30
0.0
 11
2069.166254083243
 21
1814.329868341176
 31
0.0
  0
LINE
  5
CD1
330
1F
100
AcDbEntity
  8
MUR-EST
100
AcDbLine
 10
2069.166254083243
 20
1814.329868341176
 30
0.0
 11
2069.166254083239
 21
1784.329868341174
 31
0.0
  0
LINE
  5
CD2
330
1F
100
AcDbEntity
  8
MUR-EST
100
AcDbLine
 10
2639.16625408324
 20
1814.329868341176
 30
0.0
 11
2635.009322291014
 21
1814.329868341176
 31
0.0
  0
LINE
  5
CD3
330
1F
100
AcDbEntity
  8
MUR-EST
100
AcDbLine
 10
2579.16625408324
 20
1814.329868341176
 30
0.0
 11
2579.166254083236
 21
1784.329868341174
 31
0.0
  0
LINE
  5
CD4
330
1F
100
AcDbEntity
  8
MUR-EST
100
AcDbLine
 10
2038.089925671261
 20
1784.329868341174
 30
0.0
 11
2069.166254083239
 21
1784.329868341174
 31
0.0
  0
LINE
  5
CD5
330
1F
100
AcDbEntity
  8
SERR-INT
100
AcDbLine
 10
2616.565142757426
 20
1779.77237851433
 30
0.0
 11
2040.928723057327
 21
1779.77237851433
 31
0.0
  0
ARC
  5
CD6
330
1F
100
AcDbEntity
  8
SERR-INT
100
AcDbCircle
 10
2254.866891165445
 20
1779.77237851433
 30
0.0
 40
71.20934194718046
100
AcDbArc
 50
180.0
 51
0.0
  0
ARC
  5
CD7
330
1F
100
AcDbEntity
  8
SERR-INT
100
AcDbCircle
 10
2112.13806500451
 20
1779.77237851433
 30
0.0
 40
71.20934194718046
100
AcDbArc
 50
180.0
 51
0.0
  0
ARC
  5
CD8
330
1F
100
AcDbEntity
  8
SERR-INT
100
AcDbCircle
 10
2399.71414146235
 20
1779.77237851433
 30
0.0
 40
71.20934194718046
100
AcDbArc
 50
180.0
 51
0.0
  0
ARC
  5
CD9
330
1F
100
AcDbEntity
  8
SERR-INT
100
AcDbCircle
 10
2545.355800810247
 20
1779.77237851433
 30
0.0
 40
71.20934194718046
100
AcDbArc
 50
180.0
 51
0.0
  0
LINE
  5
CDA
330
1F
100
AcDbEntity
  8
MUR-EST
100
AcDbLine
 10
2795.00932229101
 20
1364.329868341211
 30
0.0
 11
2761.379339132497
 21
1364.329868341211
 31
0.0
  0
LINE
  5
CDB
330
1F
100
AcDbEntity
  8
MUR-EST
100
AcDbLine
 10
2795.00932229101
 20
1384.329868341211
 30
0.0
 11
2761.379339132497
 21
1384.329868341211
 31
0.0
  0
LINE
  5
CDC
330
1F
100
AcDbEntity
  8
MUR-EST
100
AcDbLine
 10
2795.00932229101
 20
1364.329868341211
 30
0.0
 11
2795.00932229101
 21
1334.329868341211
 31
0.0
  0
LINE
  5
CDD
330
1F
100
AcDbEntity
  8
MUR-EST
100
AcDbLine
 10
2761.379339132497
 20
1384.329868341211
 30
0.0
 11
2761.379339132497
 21
1364.329868341211
 31
0.0
  0
LINE
  5
CDE
330
1F
100
AcDbEntity
  8
MUR-EST
100
AcDbLine
 10
2681.379339132497
 20
1384.329868341211
 30
0.0
 11
2681.379339132497
 21
1364.329868341211
 31
0.0
  0
LINE
  5
CDF
330
1F
100
AcDbEntity
  8
MUR-EST
100
AcDbLine
 10
2681.379339132497
 20
1384.329868341211
 30
0.0
 11
2645.00932229101
 21
1384.329868341211
 31
0.0
  0
LINE
  5
CE0
330
1F
100
AcDbEntity
  8
MUR-EST
100
AcDbLine
 10
2681.379339132497
 20
1364.329868341211
 30
0.0
 11
2635.00932229101
 21
1364.329868341211
 31
0.0
  0
LINE
  5
CE1
330
1F
100
AcDbEntity
  8
SERR-INT
100
AcDbLine
 10
2681.379339132497
 20
1374.329868341211
 30
0.0
 11
2761.379339132497
 21
1374.329868341211
 31
0.0
  0
LINE
  5
CE2
330
1F
100
AcDbEntity
  8
MUR-EST
100
AcDbLine
 10
2795.00932229101
 20
1563.931197535796
 30
0.0
 11
2718.481250379117
 21
1563.931197535796
 31
0.0
  0
LINE
  5
CE3
330
1F
100
AcDbEntity
  8
MUR-EST
100
AcDbLine
 10
2718.481250379117
 20
1575.204874043683
 30
0.0
 11
2718.481250379117
 21
1563.931197535796
 31
0.0
  0
LINE
  5
CE4
330
1F
100
AcDbEntity
  8
MUR-EST
100
AcDbLine
 10
2795.00932229101
 20
1575.204874043683
 30
0.0
 11
2718.481250379117
 21
1575.204874043683
 31
0.0
  0
LINE
  5
CE5
330
1F
100
AcDbEntity
  8
MUR-EST
100
AcDbLine
 10
2772.737259507441
 20
1814.329868341193
 30
0.0
 11
2772.737259507437
 21
1784.329868341211
 31
0.0
  0
LINE
  5
CE6
330
1F
100
AcDbEntity
  8
MUR-EST
100
AcDbLine
 10
2697.798005697524
 20
1814.329868341189
 30
0.0
 11
2697.79800569752
 21
1784.329868341211
 31
0.0
  0
LINE
  5
CE7
330
1F
100
AcDbEntity
  8
MUR-EST
100
AcDbLine
 10
2697.798005697524
 20
1814.329868341189
 30
0.0
 11
2669.166254083236
 21
1814.329868341189
 31
0.0
  0
LINE
  5
CE8
330
1F
100
AcDbEntity
  8
MUR-EST
100
AcDbLine
 10
2697.79800569752
 20
1784.329868341212
 30
0.0
 11
2669.166254083236
 21
1784.329868341212
 31
0.0
  0
LINE
  5
CE9
330
1F
100
AcDbEntity
  8
SERR-EST
100
AcDbLine
 10
2697.798005697524
 20
1814.329868341189
 30
0.0
 11
2772.737259507441
 21
1814.329868341193
 31
0.0
  0
LINE
  5
CEA
330
1F
100
AcDbEntity
  8
SERR-EST
100
AcDbLine
 10
2697.79800569752
 20
1784.329868341212
 30
0.0
 11
2772.737259507437
 21
1784.329868341211
 31
0.0
  0
LINE
  5
CEB
330
1F
100
AcDbEntity
  8
SERR-EST
100
AcDbLine
 10
2697.798005697524
 20
1799.329868341189
 30
0.0
 11
2772.737259507441
 21
1799.329868341192
 31
0.0
  0
LINE
  5
CEC
330
1F
100
AcDbEntity
  8
MUR-EST
100
AcDbLine
 10
1665.813898723171
 20
1814.329868341172
 30
0.0
 11
1665.813898723171
 21
1714.162396112486
 31
0.0
  0
LINE
  5
CED
330
1F
100
AcDbEntity
  8
MUR-EST
100
AcDbLine
 10
1645.813898723172
 20
1814.329868341172
 30
0.0
 11
1645.813898723172
 21
1714.329868341172
 31
0.0
  0
LINE
  5
CEE
330
1F
100
AcDbEntity
  8
SERR-EST
100
AcDbLine
 10
1645.813898723172
 20
1799.162396112486
 30
0.0
 11
1128.626762231487
 21
1799.162396112481
 31
0.0
  0
LINE
  5
CEF
330
1F
100
AcDbEntity
  8
SERR-EST
100
AcDbLine
 10
1645.813898723172
 20
1794.162396112486
 30
0.0
 11
1128.626762231487
 21
1794.162396112479
 31
0.0
  0
LINE
  5
CF0
330
1F
100
AcDbEntity
  8
SERR-EST
100
AcDbLine
 10
1645.813898723172
 20
1784.162396112484
 30
0.0
 11
1128.626762231487
 21
1784.162396112484
 31
0.0
  0
LINE
  5
CF1
330
1F
100
AcDbEntity
  8
MUR-EST
100
AcDbLine
 10
1018.626762231487
 20
1814.329868341167
 30
0.0
 11
1018.626762231502
 21
614.3298683412163
 31
0.0
  0
LINE
  5
CF2
330
1F
100
AcDbEntity
  8
MUR-EST
100
AcDbLine
 10
1048.626762231487
 20
1783.665920849053
 30
0.0
 11
1048.626762231495
 21
1193.665920849053
 31
0.0
  0
LINE
  5
CF3
330
1F
100
AcDbEntity
  8
MUR-EST
100
AcDbLine
 10
1865.00932229101
 20
1814.329868341175
 30
0.0
 11
2008.089925671265
 21
1814.329868341176
 31
0.0
  0
LINE
  5
CF4
330
1F
100
AcDbEntity
  8
MUR-EST
100
AcDbLine
 10
1665.813898723171
 20
1814.329868341172
 30
0.0
 11
1645.813898723172
 21
1814.329868341172
 31
0.0
  0
LINE
  5
CF5
330
1F
100
AcDbEntity
  8
MUR-EST
100
AcDbLine
 10
1128.626762231487
 20
1814.329868341167
 30
0.0
 11
1018.626762231487
 21
1814.329868341167
 31
0.0
  0
LINE
  5
CF6
330
1F
100
AcDbEntity
  8
SERR-EST
100
AcDbLine
 10
1645.813898723172
 20
1814.329868341172
 30
0.0
 11
1128.626762231487
 21
1814.329868341167
 31
0.0
  0
LINE
  5
CF7
330
1F
100
AcDbEntity
  8
SERR-EST
100
AcDbLine
 10
1865.00932229101
 20
1814.329868341175
 30
0.0
 11
1665.813898723171
 21
1814.329868341172
 31
0.0
  0
LINE
  5
CF8
330
1F
100
AcDbEntity
  8
MUR-EST
100
AcDbLine
 10
1128.626762231487
 20
1783.665920849053
 30
0.0
 11
1048.626762231487
 21
1783.665920849053
 31
0.0
  0
LINE
  5
CF9
330
1F
100
AcDbEntity
  8
MUR-EST
100
AcDbLine
 10
1128.626762231487
 20
1814.329868341167
 30
0.0
 11
1128.626762231487
 21
1783.665920849053
 31
0.0
  0
LINE
  5
CFA
330
1F
100
AcDbEntity
  8
MUR-EST
100
AcDbLine
 10
2791.593967416094
 20
1193.665920849053
 30
0.0
 11
2701.867447894753
 21
1193.665920849053
 31
0.0
  0
LINE
  5
CFB
330
1F
100
AcDbEntity
  8
MUR-EST
100
AcDbLine
 10
2791.593967416094
 20
1173.665920849053
 30
0.0
 11
2701.867447894753
 21
1173.665920849053
 31
0.0
  0
LINE
  5
CFC
330
1F
100
AcDbEntity
  8
MUR-EST
100
AcDbLine
 10
2791.59396741609
 20
1254.800593759565
 30
0.0
 11
2791.593967416094
 21
1193.665920849053
 31
0.0
  0
LINE
  5
CFD
330
1F
100
AcDbEntity
  8
MUR-EST
100
AcDbLine
 10
2791.593967416094
 20
1173.665920849053
 30
0.0
 11
2791.59396741609
 21
614.3298683412163
 31
0.0
  0
LINE
  5
CFE
330
1F
100
AcDbEntity
  8
SERR-EST
100
AcDbLine
 10
1368.626762231502
 20
625.2198031320899
 30
0.0
 11
1048.503910151058
 21
625.2198031320899
 31
0.0
  0
LINE
  5
CFF
330
1F
100
AcDbEntity
  8
SERR-EST
100
AcDbLine
 10
1368.626762231502
 20
630.2198031320899
 30
0.0
 11
1048.503910151058
 21
630.2198031320899
 31
0.0
  0
LINE
  5
D00
330
1F
100
AcDbEntity
  8
SERR-EST
100
AcDbLine
 10
1371.919265025982
 20
614.3298683412163
 30
0.0
 11
1048.503910151058
 21
614.3298683412163
 31
0.0
  0
LINE
  5
D01
330
1F
100
AcDbEntity
  8
MUR-EST
100
AcDbLine
 10
1048.503910151058
 20
614.3298683412163
 30
0.0
 11
1018.626762231502
 21
614.3298683412163
 31
0.0
  0
LINE
  5
D02
330
1F
100
AcDbEntity
  8
SERR-EST
100
AcDbLine
 10
1368.626762231502
 20
644.3298683412162
 30
0.0
 11
1048.503910151058
 21
644.3298683412162
 31
0.0
  0
LINE
  5
D03
330
1F
100
AcDbEntity
  8
MUR-EST
100
AcDbLine
 10
1368.626762231494
 20
1173.665920849053
 30
0.0
 11
1368.626762231494
 21
1095.03192707646
 31
0.0
  0
LINE
  5
D04
330
1F
100
AcDbEntity
  8
MUR-EST
100
AcDbLine
 10
1388.626762231494
 20
1173.665920849053
 30
0.0
 11
1388.626762231494
 21
1095.03192707646
 31
0.0
  0
LINE
  5
D05
330
1F
100
AcDbEntity
  8
MUR-EST
100
AcDbLine
 10
1708.626762231494
 20
1173.665920849053
 30
0.0
 11
1708.626762231502
 21
614.3298683411944
 31
0.0
  0
LINE
  5
D06
330
1F
100
AcDbEntity
  8
MUR-EST
100
AcDbLine
 10
1728.626762231495
 20
1173.665920849053
 30
0.0
 11
1728.626762231502
 21
614.3298683411944
 31
0.0
  0
LINE
  5
D07
330
1F
100
AcDbEntity
  8
SERR-EST
100
AcDbLine
 10
1708.626762231498
 20
644.3298683411872
 30
0.0
 11
1388.503910151058
 21
644.3298683411872
 31
0.0
  0
LINE
  5
D08
330
1F
100
AcDbEntity
  8
SERR-EST
100
AcDbLine
 10
1708.626762231502
 20
614.3298683411871
 30
0.0
 11
1388.503910151058
 21
614.3298683411871
 31
0.0
  0
LINE
  5
D09
330
1F
100
AcDbEntity
  8
SERR-EST
100
AcDbLine
 10
1708.626762231498
 20
630.2198031320681
 30
0.0
 11
1388.503910151058
 21
630.2198031320681
 31
0.0
  0
LINE
  5
D0A
330
1F
100
AcDbEntity
  8
SERR-EST
100
AcDbLine
 10
1708.626762231498
 20
625.2198031320681
 30
0.0
 11
1388.503910151058
 21
625.2198031320681
 31
0.0
  0
LINE
  5
D0B
330
1F
100
AcDbEntity
  8
MUR-EST
100
AcDbLine
 10
1388.503910151058
 20
614.3298683411871
 30
0.0
 11
1368.626762231502
 21
614.3298683411871
 31
0.0
  0
LINE
  5
D0C
330
1F
100
AcDbEntity
  8
MUR-EST
100
AcDbLine
 10
1624.618836734265
 20
1193.665920849053
 30
0.0
 11
1624.618836734265
 21
1173.665920849053
 31
0.0
  0
LINE
  5
D0D
330
1F
100
AcDbEntity
  8
MUR-EST
100
AcDbLine
 10
1544.618836734265
 20
1193.665920849053
 30
0.0
 11
1544.618836734265
 21
1173.665920849053
 31
0.0
  0
LINE
  5
D0E
330
1F
100
AcDbEntity
  8
MUR-EST
100
AcDbLine
 10
1048.626762231495
 20
1173.665920849053
 30
0.0
 11
1048.626762231502
 21
614.3298683411871
 31
0.0
  0
LINE
  5
D0F
330
1F
100
AcDbEntity
  8
MUR-EST
100
AcDbLine
 10
1368.626762231494
 20
1173.665920849053
 30
0.0
 11
1209.175147163313
 21
1173.665920849053
 31
0.0
  0
LINE
  5
D10
330
1F
100
AcDbEntity
  8
MUR-EST
100
AcDbLine
 10
1544.618836734265
 20
1193.665920849053
 30
0.0
 11
1468.626762231495
 21
1193.665920849053
 31
0.0
  0
LINE
  5
D11
330
1F
100
AcDbEntity
  8
MUR-EST
100
AcDbLine
 10
1544.618836734265
 20
1173.665920849053
 30
0.0
 11
1388.626762231494
 21
1173.665920849053
 31
0.0
  0
LINE
  5
D12
330
1F
100
AcDbEntity
  8
MUR-EST
100
AcDbLine
 10
1860.42052022093
 20
1193.665920849053
 30
0.0
 11
1860.42052022093
 21
1173.665920849053
 31
0.0
  0
LINE
  5
D13
330
1F
100
AcDbEntity
  8
MUR-EST
100
AcDbLine
 10
1940.42052022093
 20
1193.665920849053
 30
0.0
 11
1940.42052022093
 21
1173.665920849053
 31
0.0
  0
LINE
  5
D14
330
1F
100
AcDbEntity
  8
MUR-EST
100
AcDbLine
 10
1708.626762231494
 20
1173.665920849053
 30
0.0
 11
1624.618836734265
 21
1173.665920849053
 31
0.0
  0
LINE
  5
D15
330
1F
100
AcDbEntity
  8
MUR-EST
100
AcDbLine
 10
1860.42052022093
 20
1193.665920849053
 30
0.0
 11
1624.618836734265
 21
1193.665920849053
 31
0.0
  0
LINE
  5
D16
330
1F
100
AcDbEntity
  8
MUR-EST
100
AcDbLine
 10
1860.42052022093
 20
1173.665920849053
 30
0.0
 11
1728.626762231495
 21
1173.665920849053
 31
0.0
  0
LINE
  5
D17
330
1F
100
AcDbEntity
  8
SERR-INT
100
AcDbLine
 10
1624.618836734265
 20
1183.665920849053
 30
0.0
 11
1544.618836734265
 21
1183.665920849053
 31
0.0
  0
LINE
  5
D18
330
1F
100
AcDbEntity
  8
SERR-INT
100
AcDbLine
 10
1624.618836734265
 20
1183.665920849053
 30
0.0
 11
1624.618836734265
 21
1103.81309818169
 31
0.0
  0
ARC
  5
D19
330
1F
100
AcDbEntity
  8
SERR-INT
100
AcDbCircle
 10
1624.618836734265
 20
1183.665920849053
 30
0.0
 40
79.8528226673639
100
AcDbArc
 50
180.0
 51
270.0
  0
LINE
  5
D1A
330
1F
100
AcDbEntity
  8
SERR-INT
100
AcDbLine
 10
1940.672155028488
 20
1183.665920849053
 30
0.0
 11
1940.672155028488
 21
1103.81309818169
 31
0.0
  0
ARC
  5
D1B
330
1F
100
AcDbEntity
  8
SERR-INT
100
AcDbCircle
 10
1940.672155028488
 20
1183.665920849053
 30
0.0
 40
79.8528226673639
100
AcDbArc
 50
180.0
 51
270.0
  0
LINE
  5
D1C
330
1F
100
AcDbEntity
  8
SERR-INT
100
AcDbLine
 10
1940.672155028488
 20
1183.665920849053
 30
0.0
 11
1860.672155028488
 21
1183.665920849053
 31
0.0
  0
ARC
  5
D1D
330
1F
100
AcDbEntity
  8
MUR-EST
100
AcDbCircle
 10
2701.867447894753
 20
1183.665920849053
 30
0.0
 40
79.8528226673639
100
AcDbArc
 50
180.0
 51
270.0
  0
LINE
  5
D1E
330
1F
100
AcDbEntity
  8
MUR-EST
100
AcDbLine
 10
2701.867447894753
 20
1183.665920849053
 30
0.0
 11
2701.867447894753
 21
1103.81309818169
 31
0.0
  0
LINE
  5
D1F
330
1F
100
AcDbEntity
  8
MUR-EST
100
AcDbLine
 10
2621.615813087195
 20
1193.665920849053
 30
0.0
 11
2621.615813087195
 21
1173.665920849053
 31
0.0
  0
LINE
  5
D20
330
1F
100
AcDbEntity
  8
MUR-EST
100
AcDbLine
 10
2701.867447894753
 20
1193.665920849053
 30
0.0
 11
2701.867447894753
 21
1173.665920849053
 31
0.0
  0
LINE
  5
D21
330
1F
100
AcDbEntity
  8
MUR-EST
100
AcDbLine
 10
2581.867447894753
 20
1193.665920849053
 30
0.0
 11
1940.42052022093
 21
1193.665920849053
 31
0.0
  0
LINE
  5
D22
330
1F
100
AcDbEntity
  8
MUR-EST
100
AcDbLine
 10
2581.867447894753
 20
1173.665920849053
 30
0.0
 11
1940.42052022093
 21
1173.665920849053
 31
0.0
  0
LINE
  5
D23
330
1F
100
AcDbEntity
  8
SERR-EST
100
AcDbLine
 10
2791.59396741609
 20
614.3298683411654
 30
0.0
 11
1728.503910151059
 21
614.3298683411654
 31
0.0
  0
LINE
  5
D24
330
1F
100
AcDbEntity
  8
SERR-EST
100
AcDbLine
 10
2791.59396741609
 20
625.219803132039
 30
0.0
 11
1728.503910151059
 21
625.219803132039
 31
0.0
  0
LINE
  5
D25
330
1F
100
AcDbEntity
  8
SERR-EST
100
AcDbLine
 10
2791.59396741609
 20
630.219803132039
 30
0.0
 11
1728.503910151059
 21
630.219803132039
 31
0.0
  0
LINE
  5
D26
330
1F
100
AcDbEntity
  8
SERR-EST
100
AcDbLine
 10
2791.59396741609
 20
644.3298683411653
 30
0.0
 11
1728.503910151059
 21
644.3298683411653
 31
0.0
  0
LINE
  5
D27
330
1F
100
AcDbEntity
  8
MUR-EST
100
AcDbLine
 10
1728.503910151059
 20
614.3298683411654
 30
0.0
 11
1708.626762231502
 21
614.3298683411654
 31
0.0
  0
LINE
  5
D28
330
1F
100
AcDbEntity
  8
MUR-EST
100
AcDbLine
 10
1388.626762231494
 20
1095.03192707646
 30
0.0
 11
1368.626762231494
 21
1095.03192707646
 31
0.0
  0
LINE
  5
D29
330
1F
100
AcDbEntity
  8
MUR-EST
100
AcDbLine
 10
1388.626762231494
 20
1015.03192707646
 30
0.0
 11
1368.626762231498
 21
1015.03192707646
 31
0.0
  0
LINE
  5
D2A
330
1F
100
AcDbEntity
  8
MUR-EST
100
AcDbLine
 10
1368.626762231498
 20
1015.03192707646
 30
0.0
 11
1368.626762231502
 21
614.3298683411871
 31
0.0
  0
LINE
  5
D2B
330
1F
100
AcDbEntity
  8
MUR-EST
100
AcDbLine
 10
1388.626762231494
 20
1015.03192707646
 30
0.0
 11
1388.626762231502
 21
614.3298683411871
 31
0.0
  0
LINE
  5
D2C
330
1F
100
AcDbEntity
  8
SERR-INT
100
AcDbLine
 10
1378.626762231494
 20
1095.03192707646
 30
0.0
 11
1378.626762231494
 21
1015.03192707646
 31
0.0
  0
LINE
  5
D2D
330
1F
100
AcDbEntity
  8
SERR-INT
100
AcDbLine
 10
1378.626762231494
 20
1015.03192707646
 30
0.0
 11
1299.905060726042
 21
1015.03192707646
 31
0.0
  0
ARC
  5
D2E
330
1F
100
AcDbEntity
  8
SERR-INT
100
AcDbCircle
 10
1378.626762231494
 20
1015.03192707646
 30
0.0
 40
78.7217015054523
100
AcDbArc
 50
90.0
 51
180.0
  0
LINE
  5
D2F
330
1F
100
AcDbEntity
  8
MUR-EST
100
AcDbLine
 10
1448.626762231491
 20
1413.665920849053
 30
0.0
 11
1448.626762231494
 21
1353.590125900752
 31
0.0
  0
LINE
  5
D30
330
1F
100
AcDbEntity
  8
MUR-EST
100
AcDbLine
 10
1645.813898723172
 20
1413.665920849053
 30
0.0
 11
1448.626762231491
 21
1413.665920849053
 31
0.0
  0
LINE
  5
D31
330
1F
100
AcDbEntity
  8
MUR-EST
100
AcDbLine
 10
1468.626762231491
 20
1393.665920849053
 30
0.0
 11
1468.626762231495
 21
1355.506156432534
 31
0.0
  0
LINE
  5
D32
330
1F
100
AcDbEntity
  8
MUR-EST
100
AcDbLine
 10
1665.813898723171
 20
1393.665920849053
 30
0.0
 11
1468.626762231491
 21
1393.665920849053
 31
0.0
  0
LINE
  5
D33
330
1F
100
AcDbEntity
  8
MUR-EST
100
AcDbLine
 10
1448.626762231494
 20
1193.665920849055
 30
0.0
 11
1209.175147163313
 21
1193.665920849053
 31
0.0
  0
ARC
  5
D34
330
1F
100
AcDbEntity
  8
SERR-INT
100
AcDbCircle
 10
1458.626762231495
 20
1275.506156432534
 30
0.0
 40
78.7217015054523
100
AcDbArc
 50
90.0
 51
180.0
  0
LINE
  5
D35
330
1F
100
AcDbEntity
  8
SERR-INT
100
AcDbLine
 10
1458.626762231495
 20
1275.506156432534
 30
0.0
 11
1379.905060726043
 21
1275.506156432534
 31
0.0
  0
LINE
  5
D36
330
1F
100
AcDbEntity
  8
MUR-EST
100
AcDbLine
 10
1468.626762231495
 20
1355.506156432534
 30
0.0
 11
1448.626762231494
 21
1355.506156432534
 31
0.0
  0
LINE
  5
D37
330
1F
100
AcDbEntity
  8
MUR-EST
100
AcDbLine
 10
1468.626762231495
 20
1275.506156432534
 30
0.0
 11
1448.626762231494
 21
1275.506156432534
 31
0.0
  0
LINE
  5
D38
330
1F
100
AcDbEntity
  8
SERR-INT
100
AcDbLine
 10
1458.626762231495
 20
1355.506156432534
 30
0.0
 11
1458.626762231495
 21
1275.506156432534
 31
0.0
  0
LINE
  5
D39
330
1F
100
AcDbEntity
  8
MUR-EST
100
AcDbLine
 10
1448.626762231494
 20
1275.506156432534
 30
0.0
 11
1448.626762231494
 21
1193.665920849058
 31
0.0
  0
LINE
  5
D3A
330
1F
100
AcDbEntity
  8
MUR-EST
100
AcDbLine
 10
1468.626762231495
 20
1275.506156432534
 30
0.0
 11
1468.626762231495
 21
1193.665920849058
 31
0.0
  0
LINE
  5
D3B
330
1F
100
AcDbEntity
  8
MUR-EST
100
AcDbLine
 10
1665.813898723171
 20
1714.162396112486
 30
0.0
 11
1645.813898723172
 21
1714.162396112486
 31
0.0
  0
LINE
  5
D3C
330
1F
100
AcDbEntity
  8
MUR-EST
100
AcDbLine
 10
1665.813898723171
 20
1614.162396112486
 30
0.0
 11
1645.813898723172
 21
1614.162396112486
 31
0.0
  0
LINE
  5
D3D
330
1F
100
AcDbEntity
  8
MUR-EST
100
AcDbLine
 10
1645.813898723172
 20
1614.162396112486
 30
0.0
 11
1645.813898723172
 21
1413.665920849053
 31
0.0
  0
LINE
  5
D3E
330
1F
100
AcDbEntity
  8
MUR-EST
100
AcDbLine
 10
1665.813898723171
 20
1614.162396112486
 30
0.0
 11
1665.813898723171
 21
1393.665920849053
 31
0.0
  0
LINE
  5
D3F
330
1F
100
AcDbEntity
  8
SERR-INT
100
AcDbLine
 10
1645.813898723172
 20
1714.162396112486
 30
0.0
 11
1645.813898723172
 21
1614.162396112486
 31
0.0
  0
LINE
  5
D40
330
1F
100
AcDbEntity
  8
SERR-INT
100
AcDbLine
 10
1655.813898723172
 20
1714.162396112486
 30
0.0
 11
1655.813898723172
 21
1614.162396112486
 31
0.0
  0
LINE
  5
D41
330
1F
100
AcDbEntity
  8
SERR-INT
100
AcDbLine
 10
1665.813898723171
 20
1714.162396112486
 30
0.0
 11
1665.813898723171
 21
1614.162396112486
 31
0.0
  0
LINE
  5
D42
330
1F
100
AcDbEntity
  8
SCALE
100
AcDbLine
 10
2459.166254083236
 20
2294.329868341171
 30
0.0
 11
2459.166254083239
 21
2024.329868341173
 31
0.0
  0
LINE
  5
D43
330
1F
100
AcDbEntity
  8
SCALE
100
AcDbLine
 10
2218.089925671264
 20
2294.329868341171
 30
0.0
 11
2218.089925671261
 21
2024.329868341173
 31
0.0
  0
LINE
  5
D44
330
1F
100
AcDbEntity
  8
SCALE
100
AcDbLine
 10
2449.166254083236
 20
2284.329868341171
 30
0.0
 11
2228.089925671265
 21
2284.329868341171
 31
0.0
  0
LINE
  5
D45
330
1F
100
AcDbEntity
  8
SCALE
100
AcDbLine
 10
2228.089925671265
 20
2284.329868341171
 30
0.0
 11
2228.089925671265
 21
2034.329868341173
 31
0.0
  0
LINE
  5
D46
330
1F
100
AcDbEntity
  8
SCALE
100
AcDbLine
 10
2449.166254083236
 20
2284.329868341171
 30
0.0
 11
2449.16625408324
 21
2034.329868341173
 31
0.0
  0
LINE
  5
D47
330
1F
100
AcDbEntity
  8
SCALE
100
AcDbLine
 10
2449.16625408324
 20
2034.329868341173
 30
0.0
 11
2228.089925671265
 21
2034.329868341173
 31
0.0
  0
LINE
  5
D48
330
1F
100
AcDbEntity
  8
SERR-EST
100
AcDbLine
 10
2697.798005697524
 20
1794.329868341189
 30
0.0
 11
2772.737259507441
 21
1794.329868341193
 31
0.0
  0
LINE
  5
D49
330
1F
100
AcDbEntity
  8
SCALE
100
AcDbLine
 10
3045.009322291014
 20
1634.329868341211
 30
0.0
 11
3045.009322291014
 21
1489.329868341211
 31
0.0
  0
LINE
  5
D4A
330
1F
100
AcDbEntity
  8
SCALE
100
AcDbLine
 10
2910.009322291014
 20
1634.329868341211
 30
0.0
 11
2910.009322291014
 21
1484.329868341211
 31
0.0
  0
LINE
  5
D4B
330
1F
100
AcDbEntity
  8
SCALE
100
AcDbLine
 10
2915.009322291014
 20
1629.32986834121
 30
0.0
 11
3040.009322291014
 21
1629.32986834121
 31
0.0
  0
LINE
  5
D4C
330
1F
100
AcDbEntity
  8
SCALE
100
AcDbLine
 10
2915.009322291014
 20
1629.32986834121
 30
0.0
 11
2915.009322291014
 21
1484.329868341211
 31
0.0
  0
LINE
  5
D4D
330
1F
100
AcDbEntity
  8
SCALE
100
AcDbLine
 10
3040.009322291014
 20
1629.32986834121
 30
0.0
 11
3040.009322291014
 21
1484.329868341211
 31
0.0
  0
LINE
  5
D4E
330
1F
100
AcDbEntity
  8
SCALE
100
AcDbLine
 10
3045.009322291014
 20
1489.329868341211
 30
0.0
 11
3135.009322291014
 21
1489.329868341211
 31
0.0
  0
LINE
  5
D4F
330
1F
100
AcDbEntity
  8
SERR-EST
100
AcDbLine
 10
2038.089925671261
 20
2514.329868341173
 30
0.0
 11
2038.089925671261
 21
2414.329868341173
 31
0.0
  0
LINE
  5
D50
330
1F
100
AcDbEntity
  8
SERR-EST
100
AcDbLine
 10
3759.166254083244
 20
625.2198031320826
 30
0.0
 11
3481.009322291015
 21
625.2198031320826
 31
0.0
  0
LINE
  5
D51
330
1F
100
AcDbEntity
  8
SERR-EST
100
AcDbLine
 10
3759.166254083244
 20
630.2198031320827
 30
0.0
 11
3481.009322291015
 21
630.2198031320827
 31
0.0
  0
LINE
  5
D52
330
1F
100
AcDbEntity
  8
SERR-EST
100
AcDbLine
 10
3759.166254083244
 20
644.3298683412089
 30
0.0
 11
3481.009322291015
 21
644.3298683412089
 31
0.0
  0
LINE
  5
D53
330
1F
100
AcDbEntity
  8
SERR-EST
100
AcDbLine
 10
3759.166254083244
 20
614.329868341209
 30
0.0
 11
3481.009322291015
 21
614.329868341209
 31
0.0
  0
LINE
  5
D54
330
1F
100
AcDbEntity
  8
MUR-EST
100
AcDbLine
 10
3788.626762231501
 20
614.3298683412163
 30
0.0
 11
3759.742879970043
 21
614.3298683412163
 31
0.0
  0
LINE
  5
D55
330
1F
100
AcDbEntity
  8
MUR-EST
100
AcDbLine
 10
3150.009322291014
 20
1390.88993683425
 30
0.0
 11
3135.009322291014
 21
1390.88993683425
 31
0.0
  0
LINE
  5
D56
330
1F
100
AcDbEntity
  8
MUR-EST
100
AcDbLine
 10
3150.009322291014
 20
1470.88993683425
 30
0.0
 11
3135.009322291014
 21
1470.88993683425
 31
0.0
  0
LINE
  5
D57
330
1F
100
AcDbEntity
  8
MUR-EST
100
AcDbLine
 10
3150.009322291014
 20
1390.88993683425
 30
0.0
 11
3150.009322291014
 21
1244.329868341211
 31
0.0
  0
LINE
  5
D58
330
1F
100
AcDbEntity
  8
MUR-EST
100
AcDbLine
 10
3135.009322291014
 20
1390.88993683425
 30
0.0
 11
3135.009322291014
 21
1384.329868341211
 31
0.0
  0
LINE
  5
D59
330
1F
100
AcDbEntity
  8
SERR-INT
100
AcDbLine
 10
3142.82608711197
 20
1470.193390471723
 30
0.0
 11
3142.82608711197
 21
1391.530497257627
 31
0.0
  0
LINE
  5
D5A
330
1F
100
AcDbEntity
  8
SERR-INT
100
AcDbLine
 10
3142.82608711197
 20
1470.193390471723
 30
0.0
 11
3222.182469798433
 21
1470.193390471723
 31
0.0
  0
ARC
  5
D5B
330
1F
100
AcDbEntity
  8
SERR-INT
100
AcDbCircle
 10
3142.82608711197
 20
1470.88993683425
 30
0.0
 40
79.359439576623
100
AcDbArc
 50
270.0
 51
359.4971023050128
  0
LINE
  5
D5C
330
1F
100
AcDbEntity
  8
MUR-EST
100
AcDbLine
 10
3759.166254083242
 20
1244.329868341211
 30
0.0
 11
3629.214292798344
 21
1244.329868341211
 31
0.0
  0
LINE
  5
D5D
330
1F
100
AcDbEntity
  8
MUR-EST
100
AcDbLine
 10
3759.166254083242
 20
1234.329868341211
 30
0.0
 11
3601.009322291015
 21
1234.329868341211
 31
0.0
  0
LINE
  5
D5E
330
1F
100
AcDbEntity
  8
MUR-EST
100
AcDbLine
 10
3150.009322291014
 20
1234.329868341211
 30
0.0
 11
3150.009322291014
 21
614.329868341209
 31
0.0
  0
LINE
  5
D5F
330
1F
100
AcDbEntity
  8
MUR-EST
100
AcDbLine
 10
3180.009322291014
 20
1244.329868341211
 30
0.0
 11
3180.009322291017
 21
1234.329868341211
 31
0.0
  0
LINE
  5
D60
330
1F
100
AcDbEntity
  8
MUR-EST
100
AcDbLine
 10
3275.009322291014
 20
1244.329868341211
 30
0.0
 11
3275.009322291014
 21
1234.329868341211
 31
0.0
  0
LINE
  5
D61
330
1F
100
AcDbEntity
  8
MUR-EST
100
AcDbLine
 10
3471.009322291015
 20
1234.329868341211
 30
0.0
 11
3471.009322291015
 21
614.3298683412163
 31
0.0
  0
LINE
  5
D62
330
1F
100
AcDbEntity
  8
MUR-EST
100
AcDbLine
 10
3481.009322291015
 20
1234.329868341211
 30
0.0
 11
3481.009322291015
 21
614.3298683412163
 31
0.0
  0
LINE
  5
D63
330
1F
100
AcDbEntity
  8
MUR-EST
100
AcDbLine
 10
3180.009322291014
 20
1234.329868341211
 30
0.0
 11
3150.009322291014
 21
1234.329868341211
 31
0.0
  0
LINE
  5
D64
330
1F
100
AcDbEntity
  8
MUR-EST
100
AcDbLine
 10
3180.009322291014
 20
1244.329868341211
 30
0.0
 11
3150.009322291014
 21
1244.329868341211
 31
0.0
  0
LINE
  5
D65
330
1F
100
AcDbEntity
  8
MUR-EST
100
AcDbLine
 10
3601.009322291015
 20
1244.329868341211
 30
0.0
 11
3601.009322291015
 21
1234.329868341211
 31
0.0
  0
LINE
  5
D66
330
1F
100
AcDbEntity
  8
MUR-EST
100
AcDbLine
 10
3506.009322291015
 20
1244.329868341211
 30
0.0
 11
3506.009322291015
 21
1234.329868341211
 31
0.0
  0
LINE
  5
D67
330
1F
100
AcDbEntity
  8
MUR-EST
100
AcDbLine
 10
3506.009322291015
 20
1244.329868341211
 30
0.0
 11
3275.009322291014
 21
1244.329868341211
 31
0.0
  0
LINE
  5
D68
330
1F
100
AcDbEntity
  8
MUR-EST
100
AcDbLine
 10
3506.009322291015
 20
1234.329868341211
 30
0.0
 11
3481.009322291015
 21
1234.329868341211
 31
0.0
  0
LINE
  5
D69
330
1F
100
AcDbEntity
  8
MUR-EST
100
AcDbLine
 10
3759.166254083242
 20
1466.329868341211
 30
0.0
 11
3497.214292798343
 21
1466.329868341211
 31
0.0
  0
LINE
  5
D6A
330
1F
100
AcDbEntity
  8
MUR-EST
100
AcDbLine
 10
3759.166254083242
 20
1456.329868341211
 30
0.0
 11
3629.214292798343
 21
1456.329868341211
 31
0.0
  0
LINE
  5
D6B
330
1F
100
AcDbEntity
  8
MUR-EST
100
AcDbLine
 10
3619.214292798343
 20
1456.329868341211
 30
0.0
 11
3619.214292798343
 21
1373.407963440528
 31
0.0
  0
LINE
  5
D6C
330
1F
100
AcDbEntity
  8
MUR-EST
100
AcDbLine
 10
3629.214292798343
 20
1456.329868341211
 30
0.0
 11
3629.214292798343
 21
1373.407963440528
 31
0.0
  0
LINE
  5
D6D
330
1F
100
AcDbEntity
  8
MUR-EST
100
AcDbLine
 10
3619.214292798343
 20
1456.329868341211
 30
0.0
 11
3487.214292798343
 21
1456.329868341211
 31
0.0
  0
LINE
  5
D6E
330
1F
100
AcDbEntity
  8
MUR-EST
100
AcDbLine
 10
3619.214292798344
 20
1244.329868341211
 30
0.0
 11
3601.009322291015
 21
1244.329868341211
 31
0.0
  0
LINE
  5
D6F
330
1F
100
AcDbEntity
  8
MUR-EST
100
AcDbLine
 10
3471.009322291015
 20
1234.329868341211
 30
0.0
 11
3275.009322291014
 21
1234.329868341211
 31
0.0
  0
LINE
  5
D70
330
1F
100
AcDbEntity
  8
MUR-EST
100
AcDbLine
 10
3487.214292798343
 20
1574.329868341211
 30
0.0
 11
3423.888242945035
 21
1574.329868341211
 31
0.0
  0
LINE
  5
D71
330
1F
100
AcDbEntity
  8
MUR-EST
100
AcDbLine
 10
3487.214292798343
 20
1814.329868341209
 30
0.0
 11
3487.214292798343
 21
1584.32986834121
 31
0.0
  0
LINE
  5
D72
330
1F
100
AcDbEntity
  8
MUR-EST
100
AcDbLine
 10
3497.214292798337
 20
1814.329868341209
 30
0.0
 11
3497.214292798341
 21
1554.257278495619
 31
0.0
  0
LINE
  5
D73
330
1F
100
AcDbEntity
  8
MUR-EST
100
AcDbLine
 10
3487.214292798343
 20
1584.32986834121
 30
0.0
 11
3423.888242945037
 21
1584.32986834121
 31
0.0
  0
LINE
  5
D74
330
1F
100
AcDbEntity
  8
MUR-EST
100
AcDbLine
 10
3150.009322291014
 20
1574.329868341211
 30
0.0
 11
3150.009322291014
 21
1470.88993683425
 31
0.0
  0
LINE
  5
D75
330
1F
100
AcDbEntity
  8
MUR-EST
100
AcDbLine
 10
3629.214292798343
 20
1303.407963440528
 30
0.0
 11
3619.214292798343
 21
1303.407963440528
 31
0.0
  0
LINE
  5
D76
330
1F
100
AcDbEntity
  8
MUR-EST
100
AcDbLine
 10
3629.214292798341
 20
1373.407963440528
 30
0.0
 11
3619.214292798343
 21
1373.407963440528
 31
0.0
  0
LINE
  5
D77
330
1F
100
AcDbEntity
  8
MUR-EST
100
AcDbLine
 10
3619.214292798343
 20
1303.407963440528
 30
0.0
 11
3619.214292798343
 21
1244.329868341211
 31
0.0
  0
LINE
  5
D78
330
1F
100
AcDbEntity
  8
MUR-EST
100
AcDbLine
 10
3629.214292798343
 20
1303.407963440528
 30
0.0
 11
3629.214292798343
 21
1244.329868341211
 31
0.0
  0
LINE
  5
D79
330
1F
100
AcDbEntity
  8
MUR-EST
100
AcDbLine
 10
3759.166254083242
 20
1456.329868341211
 30
0.0
 11
3759.166254083242
 21
1244.329868341211
 31
0.0
  0
LINE
  5
D7A
330
1F
100
AcDbEntity
  8
MUR-EST
100
AcDbLine
 10
3759.166254083242
 20
1234.329868341211
 30
0.0
 11
3759.166254083244
 21
614.329868341209
 31
0.0
  0
LINE
  5
D7B
330
1F
100
AcDbEntity
  8
MUR-EST
100
AcDbLine
 10
3487.214292798343
 20
1574.329868341211
 30
0.0
 11
3487.214292798343
 21
1554.257278495619
 31
0.0
  0
LINE
  5
D7C
330
1F
100
AcDbEntity
  8
MUR-EST
100
AcDbLine
 10
3337.214292798343
 20
1814.329868341205
 30
0.0
 11
3337.214292798343
 21
1584.32986834121
 31
0.0
  0
LINE
  5
D7D
330
1F
100
AcDbEntity
  8
MUR-EST
100
AcDbLine
 10
3327.214292798343
 20
1814.329868341205
 30
0.0
 11
3327.214292798343
 21
1584.32986834121
 31
0.0
  0
LINE
  5
D7E
330
1F
100
AcDbEntity
  8
MUR-EST
100
AcDbLine
 10
3327.214292798343
 20
1584.32986834121
 30
0.0
 11
3313.998933076661
 21
1584.32986834121
 31
0.0
  0
LINE
  5
D7F
330
1F
100
AcDbEntity
  8
MUR-EST
100
AcDbLine
 10
3497.214292798343
 20
1484.25727849562
 30
0.0
 11
3487.214292798343
 21
1484.25727849562
 31
0.0
  0
LINE
  5
D80
330
1F
100
AcDbEntity
  8
MUR-EST
100
AcDbLine
 10
3497.214292798341
 20
1554.257278495619
 30
0.0
 11
3487.214292798343
 21
1554.257278495619
 31
0.0
  0
LINE
  5
D81
330
1F
100
AcDbEntity
  8
MUR-EST
100
AcDbLine
 10
3497.214292798343
 20
1484.25727849562
 30
0.0
 11
3497.214292798343
 21
1466.329868341211
 31
0.0
  0
LINE
  5
D82
330
1F
100
AcDbEntity
  8
MUR-EST
100
AcDbLine
 10
3487.214292798343
 20
1484.25727849562
 30
0.0
 11
3487.214292798343
 21
1456.329868341211
 31
0.0
  0
LINE
  5
D83
330
1F
100
AcDbEntity
  8
MUR-EST
100
AcDbLine
 10
3423.888242945035
 20
1584.32986834121
 30
0.0
 11
3423.888242945035
 21
1574.329868341211
 31
0.0
  0
LINE
  5
D84
330
1F
100
AcDbEntity
  8
MUR-EST
100
AcDbLine
 10
3353.888242945038
 20
1584.32986834121
 30
0.0
 11
3353.888242945038
 21
1574.329868341211
 31
0.0
  0
LINE
  5
D85
330
1F
100
AcDbEntity
  8
MUR-EST
100
AcDbLine
 10
3353.888242945034
 20
1574.329868341211
 30
0.0
 11
3313.998933076661
 21
1574.329868341211
 31
0.0
  0
LINE
  5
D86
330
1F
100
AcDbEntity
  8
MUR-EST
100
AcDbLine
 10
3353.888242945038
 20
1584.32986834121
 30
0.0
 11
3337.214292798343
 21
1584.32986834121
 31
0.0
  0
LINE
  5
D87
330
1F
100
AcDbEntity
  8
MUR-EST
100
AcDbLine
 10
3243.998933076662
 20
1584.32986834121
 30
0.0
 11
3243.998933076662
 21
1574.329868341211
 31
0.0
  0
LINE
  5
D88
330
1F
100
AcDbEntity
  8
MUR-EST
100
AcDbLine
 10
3313.998933076661
 20
1584.32986834121
 30
0.0
 11
3313.998933076661
 21
1574.329868341211
 31
0.0
  0
LINE
  5
D89
330
1F
100
AcDbEntity
  8
MUR-EST
100
AcDbLine
 10
3243.998933076662
 20
1574.329868341211
 30
0.0
 11
3150.009322291014
 21
1574.329868341211
 31
0.0
  0
LINE
  5
D8A
330
1F
100
AcDbEntity
  8
MUR-EST
100
AcDbLine
 10
3243.998933076662
 20
1584.32986834121
 30
0.0
 11
3150.009322291014
 21
1584.32986834121
 31
0.0
  0
LINE
  5
D8B
330
1F
100
AcDbEntity
  8
SERR-INT
100
AcDbLine
 10
3244.929650071153
 20
1578.85774855399
 30
0.0
 11
3312.865946104662
 21
1578.85774855399
 31
0.0
  0
LINE
  5
D8C
330
1F
100
AcDbEntity
  8
SERR-INT
100
AcDbLine
 10
3312.865946104662
 20
1578.85774855399
 30
0.0
 11
3312.865946104662
 21
1646.794044587499
 31
0.0
  0
ARC
  5
D8D
330
1F
100
AcDbEntity
  8
SERR-INT
100
AcDbCircle
 10
3312.865946104662
 20
1578.85774855399
 30
0.0
 40
67.93629603350836
100
AcDbArc
 50
90.0
 51
180.0
  0
ARC
  5
D8E
330
1F
100
AcDbEntity
  8
SERR-INT
100
AcDbCircle
 10
3355.021229917034
 20
1578.85774855399
 30
0.0
 40
67.93629603350836
100
AcDbArc
 50
0.0
 51
90.0
  0
LINE
  5
D8F
330
1F
100
AcDbEntity
  8
SERR-INT
100
AcDbLine
 10
3422.957525950542
 20
1578.85774855399
 30
0.0
 11
3355.021229917034
 21
1578.85774855399
 31
0.0
  0
LINE
  5
D90
330
1F
100
AcDbEntity
  8
SERR-INT
100
AcDbLine
 10
3355.021229917034
 20
1578.85774855399
 30
0.0
 11
3355.021229917034
 21
1646.794044587499
 31
0.0
  0
LINE
  5
D91
330
1F
100
AcDbEntity
  8
SERR-INT
100
AcDbLine
 10
3491.175268384163
 20
1553.585704738256
 30
0.0
 11
3491.175268384163
 21
1485.247445248357
 31
0.0
  0
LINE
  5
D92
330
1F
100
AcDbEntity
  8
SERR-INT
100
AcDbLine
 10
3491.175268384163
 20
1485.247445248357
 30
0.0
 11
3559.513527874062
 21
1485.247445248357
 31
0.0
  0
ARC
  5
D93
330
1F
100
AcDbEntity
  8
SERR-INT
100
AcDbCircle
 10
3491.175268384163
 20
1485.247445248357
 30
0.0
 40
68.33825948989863
100
AcDbArc
 50
0.0
 51
90.0
  0
ARC
  5
D94
330
1F
100
AcDbEntity
  8
SERR-INT
100
AcDbCircle
 10
3624.419619007187
 20
1372.644895124437
 30
0.0
 40
68.33825948989863
100
AcDbArc
 50
180.0
 51
270.0
  0
LINE
  5
D95
330
1F
100
AcDbEntity
  8
SERR-INT
100
AcDbLine
 10
3624.419619007187
 20
1304.306635634537
 30
0.0
 11
3624.419619007187
 21
1372.644895124437
 31
0.0
  0
LINE
  5
D96
330
1F
100
AcDbEntity
  8
SERR-INT
100
AcDbLine
 10
3556.081359517288
 20
1372.644895124437
 30
0.0
 11
3624.419619007187
 21
1372.644895124437
 31
0.0
  0
LINE
  5
D97
330
1F
100
AcDbEntity
  8
SERR-INT
100
AcDbLine
 10
3507.412328769552
 20
1239.477023169901
 30
0.0
 11
3599.861556163393
 21
1239.477023169901
 31
0.0
  0
LINE
  5
D98
330
1F
100
AcDbEntity
  8
SERR-INT
100
AcDbLine
 10
3507.412328769552
 20
1239.477023169901
 30
0.0
 11
3507.412328769549
 21
1147.027795776059
 31
0.0
  0
ARC
  5
D99
330
1F
100
AcDbEntity
  8
SERR-INT
100
AcDbCircle
 10
3507.412328769552
 20
1239.477023169901
 30
0.0
 40
92.4492273938422
100
AcDbArc
 50
270.0
 51
0.0
  0
ARC
  5
D9A
330
1F
100
AcDbEntity
  8
SERR-INT
100
AcDbCircle
 10
3181.41232876955
 20
1239.477023169903
 30
0.0
 40
92.4492273938422
100
AcDbArc
 50
270.0
 51
0.0
  0
LINE
  5
D9B
330
1F
100
AcDbEntity
  8
SERR-INT
100
AcDbLine
 10
3181.41232876955
 20
1239.477023169903
 30
0.0
 11
3181.41232876955
 21
1147.027795776059
 31
0.0
  0
LINE
  5
D9C
330
1F
100
AcDbEntity
  8
SERR-INT
100
AcDbLine
 10
3181.41232876955
 20
1239.477023169903
 30
0.0
 11
3273.861556163391
 21
1239.477023169903
 31
0.0
  0
LINE
  5
D9D
330
1F
100
AcDbEntity
  8
SERR-EST
100
AcDbLine
 10
3471.009322291015
 20
644.3298683412089
 30
0.0
 11
3150.009322291014
 21
644.3298683412089
 31
0.0
  0
LINE
  5
D9E
330
1F
100
AcDbEntity
  8
SERR-EST
100
AcDbLine
 10
3471.009322291015
 20
630.2198031320827
 30
0.0
 11
3150.009322291014
 21
630.2198031320827
 31
0.0
  0
LINE
  5
D9F
330
1F
100
AcDbEntity
  8
SERR-EST
100
AcDbLine
 10
3471.009322291015
 20
625.2198031320826
 30
0.0
 11
3150.009322291014
 21
625.2198031320826
 31
0.0
  0
LINE
  5
DA0
330
1F
100
AcDbEntity
  8
SERR-EST
100
AcDbLine
 10
3471.009322291015
 20
614.329868341209
 30
0.0
 11
3150.009322291014
 21
614.329868341209
 31
0.0
  0
LINE
  5
DA1
330
1F
100
AcDbEntity
  8
MUR-EST
100
AcDbLine
 10
3481.009322291015
 20
614.3298683412163
 30
0.0
 11
3471.009322291015
 21
614.3298683412163
 31
0.0
  0
LINE
  5
DA2
330
1F
100
AcDbEntity
  8
MUR-EST
100
AcDbLine
 10
3150.009322291014
 20
1814.3298683412
 30
0.0
 11
2772.737259507441
 21
1814.329868341193
 31
0.0
  0
LINE
  5
DA3
330
1F
100
AcDbEntity
  8
MUR-EST
100
AcDbLine
 10
3497.214292798337
 20
1814.329868341211
 30
0.0
 11
3487.214292798343
 21
1814.329868341209
 31
0.0
  0
LINE
  5
DA4
330
1F
100
AcDbEntity
  8
MUR-EST
100
AcDbLine
 10
3337.214292798343
 20
1814.329868341205
 30
0.0
 11
3327.214292798343
 21
1814.329868341205
 31
0.0
  0
LINE
  5
DA5
330
1F
100
AcDbEntity
  8
SERR-EST
100
AcDbLine
 10
3150.00932229101
 20
1784.329868341223
 30
0.0
 11
3327.214292798343
 21
1784.329868341223
 31
0.0
  0
LINE
  5
DA6
330
1F
100
AcDbEntity
  8
SERR-EST
100
AcDbLine
 10
3150.009322291014
 20
1794.3298683412
 30
0.0
 11
3327.214292798343
 21
1794.329868341205
 31
0.0
  0
LINE
  5
DA7
330
1F
100
AcDbEntity
  8
SERR-EST
100
AcDbLine
 10
3150.009322291014
 20
1799.3298683412
 30
0.0
 11
3327.214292798343
 21
1799.329868341205
 31
0.0
  0
LINE
  5
DA8
330
1F
100
AcDbEntity
  8
SERR-EST
100
AcDbLine
 10
3150.009322291014
 20
1814.3298683412
 30
0.0
 11
3327.214292798343
 21
1814.329868341205
 31
0.0
  0
LINE
  5
DA9
330
1F
100
AcDbEntity
  8
SERR-EST
100
AcDbLine
 10
3337.214292798343
 20
1814.329868341205
 30
0.0
 11
3487.214292798343
 21
1814.329868341209
 31
0.0
  0
LINE
  5
DAA
330
1F
100
AcDbEntity
  8
SERR-EST
100
AcDbLine
 10
3337.214292798343
 20
1794.329868341205
 30
0.0
 11
3487.214292798343
 21
1794.329868341211
 31
0.0
  0
LINE
  5
DAB
330
1F
100
AcDbEntity
  8
SERR-EST
100
AcDbLine
 10
3337.214292798343
 20
1799.329868341205
 30
0.0
 11
3487.214292798343
 21
1799.329868341211
 31
0.0
  0
LINE
  5
DAC
330
1F
100
AcDbEntity
  8
SERR-EST
100
AcDbLine
 10
3337.21429279834
 20
1784.329868341229
 30
0.0
 11
3487.214292798343
 21
1784.329868341227
 31
0.0
  0
LINE
  5
DAD
330
1F
100
AcDbEntity
  8
SERR-EST
100
AcDbLine
 10
3497.214292798337
 20
1784.329868341227
 30
0.0
 11
3759.166254083242
 21
1784.329868341227
 31
0.0
  0
LINE
  5
DAE
330
1F
100
AcDbEntity
  8
SERR-EST
100
AcDbLine
 10
3497.214292798337
 20
1799.329868341211
 30
0.0
 11
3759.166254083242
 21
1799.329868341218
 31
0.0
  0
LINE
  5
DAF
330
1F
100
AcDbEntity
  8
SERR-EST
100
AcDbLine
 10
3497.214292798337
 20
1794.329868341211
 30
0.0
 11
3759.166254083242
 21
1794.329868341218
 31
0.0
  0
LINE
  5
DB0
330
1F
100
AcDbEntity
  8
SERR-EST
100
AcDbLine
 10
3497.214292798337
 20
1814.329868341211
 30
0.0
 11
3759.166254083242
 21
1814.329868341216
 31
0.0
  0
LINE
  5
DB1
330
1F
100
AcDbEntity
  8
MUR-EST
100
AcDbLine
 10
1323.089925671261
 20
6144.329868341177
 30
0.0
 11
1387.317061327408
 21
6144.329868341177
 31
0.0
  0
LINE
  5
DB2
330
1F
100
AcDbEntity
  8
MUR-EST
100
AcDbLine
 10
1487.881609287567
 20
5854.329868341176
 30
0.0
 11
1853.089925671276
 21
5854.329868341176
 31
0.0
  0
LINE
  5
DB3
330
1F
100
AcDbEntity
  8
MUR-EST
100
AcDbLine
 10
1397.317061327408
 20
6144.329868341177
 30
0.0
 11
1473.19398069382
 21
6144.329868341177
 31
0.0
  0
LINE
  5
DB4
330
1F
100
AcDbEntity
  8
MUR-EST
100
AcDbLine
 10
1983.242575492331
 20
6144.329868341177
 30
0.0
 11
1983.242575492331
 21
5986.64919091473
 31
0.0
  0
LINE
  5
DB5
330
1F
100
AcDbEntity
  8
MUR-EST
100
AcDbLine
 10
1763.089925671279
 20
5854.329868341176
 30
0.0
 11
1983.089925671275
 21
5854.329868341176
 31
0.0
  0
LINE
  5
DB6
330
1F
100
AcDbEntity
  8
MUR-EST
100
AcDbLine
 10
1983.089925671279
 20
5904.329868341178
 30
0.0
 11
1983.089925671275
 21
5854.329868341176
 31
0.0
  0
LINE
  5
DB7
330
1F
100
AcDbEntity
  8
MUR-EST
100
AcDbLine
 10
1323.089925671261
 20
6144.329868341177
 30
0.0
 11
1900.430105320064
 21
6144.329868341177
 31
0.0
  0
LINE
  5
DB8
330
1F
100
AcDbEntity
  8
MUR-EST
100
AcDbLine
 10
1666.953701950427
 20
6144.329868341177
 30
0.0
 11
1753.089925671279
 21
6144.329868341177
 31
0.0
  0
LINE
  5
DB9
330
1F
100
AcDbEntity
  8
MUR-EST
100
AcDbLine
 10
1323.089925671261
 20
5854.329868341176
 30
0.0
 11
1407.881609287567
 21
5854.329868341176
 31
0.0
  0
LINE
  5
DBA
330
1F
100
AcDbEntity
  8
SERR-EST
100
AcDbLine
 10
1930.135664903067
 20
6195.644986652927
 30
0.0
 11
1930.135664903067
 21
6126.525885261731
 31
0.0
  0
LINE
  5
DBB
330
1F
100
AcDbEntity
  8
MUR-EST
100
AcDbLine
 10
2635.009322291014
 20
1814.329868341176
 30
0.0
 11
2579.16625408324
 21
1814.329868341176
 31
0.0
  0
LINE
  5
DBC
330
1F
100
AcDbEntity
  8
MUR-EST
100
AcDbLine
 10
2581.867447894753
 20
1193.665920849053
 30
0.0
 11
2621.615813087195
 21
1193.665920849053
 31
0.0
  0
LINE
  5
DBD
330
1F
100
AcDbEntity
  8
MUR-EST
100
AcDbLine
 10
2581.867447894753
 20
1173.665920849053
 30
0.0
 11
2621.615813087195
 21
1173.665920849053
 31
0.0
  0
LWPOLYLINE
  5
DBE
330
1F
100
AcDbEntity
  8
LINEA-SEZIO
 62
     3
100
AcDbPolyline
 90
        3
 70
     1
 43
0.0
 10
2435.949146933455
 20
454.5830469429752
 10
2435.949146933455
 20
535.5204156432614
 10
2417.070903888728
 20
495.0517312931192
  0
SOLID
  5
DBF
330
1F
100
AcDbEntity
  8
LINEA-SEZIO
 62
     3
100
AcDbTrace
 10
2435.949146933453
 20
535.5204156432614
 30
0.0
 11
2417.070903888728
 21
495.051731293121
 31
0.0
 12
2435.949146933453
 22
454.5830469429733
 32
0.0
 13
2435.949146933453
 23
454.5830469429733
 33
0.0
  0
LINE
  5
DC0
330
1F
100
AcDbEntity
  8
LINEA-SEZIO
100
AcDbLine
 10
2451.508458136125
 20
452.5576407617722
 30
0.0
 11
2451.508458136125
 21
592.1068713275185
 31
0.0
  0
TEXT
  5
DC1
330
1F
100
AcDbEntity
  8
LINEA-SEZIO
 62
     3
100
AcDbText
 10
2450.666311673961
 20
410.336072987149
 30
0.0
 40
35.0
  1
A
 50
90.0
  7
ROMANC
 72
     4
 11
2433.166311673961
 21
427.0027396538157
 31
0.0
100
AcDbText
  0
LWPOLYLINE
  5
DC2
330
1F
100
AcDbEntity
  8
LINEA-SEZIO
 62
     3
100
AcDbPolyline
 90
        3
 70
     1
 43
0.0
 10
2435.949146933455
 20
6802.385001588482
 10
2435.949146933455
 20
6883.322370288766
 10
2417.070903888728
 20
6842.853685938624
  0
SOLID
  5
DC3
330
1F
100
AcDbEntity
  8
LINEA-SEZIO
 62
     3
100
AcDbTrace
 10
2435.949146933453
 20
6883.322370288766
 30
0.0
 11
2417.070903888728
 21
6842.853685938623
 31
0.0
 12
2435.949146933453
 22
6802.385001588482
 32
0.0
 13
2435.949146933453
 23
6802.385001588482
 33
0.0
  0
LINE
  5
DC4
330
1F
100
AcDbEntity
  8
LINEA-SEZIO
100
AcDbLine
 10
2451.508458136125
 20
6742.985509863261
 30
0.0
 11
2451.508458136125
 21
6882.534740429008
 31
0.0
  0
TEXT
  5
DC5
330
1F
100
AcDbEntity
  8
LINEA-SEZIO
 62
     3
100
AcDbText
 10
2450.666311673961
 20
6890.576568800637
 30
0.0
 40
35.0
  1
A
 50
90.0
  7
ROMANC
 72
     4
 11
2433.166311673961
 21
6907.243235467304
 31
0.0
100
AcDbText
  0
LINE
  5
DC6
330
1F
100
AcDbEntity
  8
SERR-INT
100
AcDbLine
 10
2003.089925671265
 20
5364.329868341179
 30
0.0
 11
1923.089925671261
 21
5364.329868341179
 31
0.0
  0
ARC
  5
DC7
330
1F
100
AcDbEntity
  8
SERR-INT
100
AcDbCircle
 10
2003.089925671265
 20
5364.329868341179
 30
0.0
 40
80.00000000000007
100
AcDbArc
 50
180.0
 51
270.0
  0
LINE
  5
DC8
330
1F
100
AcDbEntity
  8
SERR-INT
100
AcDbLine
 10
2003.089925671261
 20
5364.329868341179
 30
0.0
 11
2003.089925671261
 21
5284.329868341179
 31
0.0
  0
LINE
  5
DC9
330
1F
100
AcDbEntity
  8
MUR-EST
100
AcDbLine
 10
1323.089925671261
 20
3984.32986834117
 30
0.0
 11
1983.089925671265
 21
3984.32986834117
 31
0.0
  0
LINE
  5
DCA
330
1F
100
AcDbEntity
  8
MUR-EST
100
AcDbLine
 10
3359.166254083236
 20
4704.329868341168
 30
0.0
 11
2699.166254083236
 21
4704.329868341168
 31
0.0
  0
LINE
  5
DCB
330
1F
100
AcDbEntity
  8
SCALE
100
AcDbLine
 10
2559.166254083225
 20
6174.329868341182
 30
0.0
 11
2549.166254083225
 21
6174.329868341182
 31
0.0
  0
LINE
  5
DCC
330
1F
100
AcDbEntity
  8
SCALE
100
AcDbLine
 10
2559.166254083232
 20
6174.329868341179
 30
0.0
 11
2559.166254083225
 21
6174.329868341182
 31
0.0
  0
LINE
  5
DCD
330
1F
100
AcDbEntity
  8
MUR-EST
100
AcDbLine
 10
2223.089925671265
 20
6144.329868341173
 30
0.0
 11
2261.680862455621
 21
6144.32986834117
 31
0.0
  0
LINE
  5
DCE
330
1F
100
AcDbEntity
  8
MUR-EST
100
AcDbLine
 10
2223.089925671257
 20
6174.329868341178
 30
0.0
 11
2261.680862455621
 21
6174.329868341178
 31
0.0
  0
LINE
  5
DCF
330
1F
100
AcDbEntity
  8
SERR-INT
100
AcDbLine
 10
2261.680862455621
 20
6150.866932535794
 30
0.0
 11
2471.680862455621
 21
6150.866932535794
 31
0.0
  0
LINE
  5
DD0
330
1F
100
AcDbEntity
  8
SERR-INT
100
AcDbLine
 10
2261.680862455621
 20
6155.866932535795
 30
0.0
 11
2471.680862455621
 21
6155.866932535793
 31
0.0
  0
LINE
  5
DD1
330
1F
100
AcDbEntity
  8
MUR-EST
100
AcDbLine
 10
2286.680862455617
 20
6155.866932535793
 30
0.0
 11
2286.680862455617
 21
6235.866932535794
 31
0.0
  0
ARC
  5
DD2
330
1F
100
AcDbEntity
  8
SERR-INT
100
AcDbCircle
 10
2286.680862455617
 20
6155.866932535793
 30
0.0
 40
80.0
100
AcDbArc
 50
0.0
 51
90.0
  0
ARC
  5
DD3
330
1F
100
AcDbEntity
  8
SERR-INT
100
AcDbCircle
 10
2446.680862455617
 20
6155.866932535793
 30
0.0
 40
80.0
100
AcDbArc
 50
90.0
 51
180.0
  0
LINE
  5
DD4
330
1F
100
AcDbEntity
  8
SERR-INT
100
AcDbLine
 10
2446.680862455617
 20
6155.866932535793
 30
0.0
 11
2446.680862455617
 21
6235.866932535794
 31
0.0
  0
LINE
  5
DD5
330
1F
100
AcDbEntity
  8
SERR-INT
100
AcDbLine
 10
2366.680862455617
 20
6119.8033182217
 30
0.0
 11
2366.680862455617
 21
6234.196758034293
 31
0.0
  0
LINE
  5
DD6
330
1F
100
AcDbEntity
  8
MUR-EST
100
AcDbLine
 10
2559.166254083232
 20
6174.329868341182
 30
0.0
 11
2471.680862455621
 21
6174.329868341182
 31
0.0
  0
LINE
  5
DD7
330
1F
100
AcDbEntity
  8
MUR-EST
100
AcDbLine
 10
2559.166254083232
 20
6144.329868341174
 30
0.0
 11
2471.680862455621
 21
6144.329868341173
 31
0.0
  0
LINE
  5
DD8
330
1F
100
AcDbEntity
  8
MUR-EST
100
AcDbLine
 10
2471.680862455621
 20
6174.329868341182
 30
0.0
 11
2471.680862455621
 21
6144.329868341173
 31
0.0
  0
ARC
  5
DD9
330
1F
100
AcDbEntity
  8
SERR-INT
100
AcDbCircle
 10
1437.76701426646
 20
6014.263535570928
 30
0.0
 40
65.3587535363939
100
AcDbArc
 50
274.6714249119559
 51
355.6484193287817
  0
LINE
  5
DDA
330
1F
100
AcDbEntity
  8
SERR-INT
100
AcDbLine
 10
1443.089925671279
 20
6009.329868341177
 30
0.0
 11
1503.089925671279
 21
6009.329868341177
 31
0.0
  0
ARC
  5
DDB
330
1F
100
AcDbEntity
  8
SERR-INT
100
AcDbCircle
 10
1547.76701426646
 20
6014.263535570928
 30
0.0
 40
65.3587535363939
100
AcDbArc
 50
274.6714249119559
 51
355.6484193287817
  0
LINE
  5
DDC
330
1F
100
AcDbEntity
  8
MUR-EST
100
AcDbLine
 10
1533.089925671279
 20
6144.329868341177
 30
0.0
 11
1533.089925671279
 21
6014.329868341178
 31
0.0
  0
LINE
  5
DDD
330
1F
100
AcDbEntity
  8
MUR-EST
100
AcDbLine
 10
1523.089925671279
 20
6144.329868341177
 30
0.0
 11
1523.089925671279
 21
6014.329868341178
 31
0.0
  0
LINE
  5
DDE
330
1F
100
AcDbEntity
  8
SERR-INT
100
AcDbLine
 10
1553.089925671276
 20
6009.329868341177
 30
0.0
 11
1613.089925671279
 21
6009.329868341177
 31
0.0
  0
LINE
  5
DDF
330
1F
100
AcDbEntity
  8
SERR-INT
100
AcDbLine
 10
1553.089925671276
 20
6009.329868341177
 30
0.0
 11
1553.089925671276
 21
5949.121895447213
 31
0.0
  0
LINE
  5
DE0
330
1F
100
AcDbEntity
  8
MUR-EST
100
AcDbLine
 10
1503.089925671279
 20
6014.329868341178
 30
0.0
 11
1503.089925671279
 21
6004.329868341177
 31
0.0
  0
LINE
  5
DE1
330
1F
100
AcDbEntity
  8
MUR-EST
100
AcDbLine
 10
1503.089925671279
 20
6004.329868341177
 30
0.0
 11
1553.089925671276
 21
6004.329868341177
 31
0.0
  0
LINE
  5
DE2
330
1F
100
AcDbEntity
  8
MUR-EST
100
AcDbLine
 10
1553.089925671276
 20
6014.329868341178
 30
0.0
 11
1553.089925671276
 21
6004.329868341177
 31
0.0
  0
LINE
  5
DE3
330
1F
100
AcDbEntity
  8
MUR-EST
100
AcDbLine
 10
1503.089925671279
 20
6014.329868341178
 30
0.0
 11
1523.089925671279
 21
6014.329868341178
 31
0.0
  0
LINE
  5
DE4
330
1F
100
AcDbEntity
  8
MUR-EST
100
AcDbLine
 10
1533.089925671279
 20
6014.329868341178
 30
0.0
 11
1553.089925671276
 21
6014.329868341178
 31
0.0
  0
LINE
  5
DE5
330
1F
100
AcDbEntity
  8
MUR-EST
100
AcDbLine
 10
1413.089925671279
 20
6144.329868341177
 30
0.0
 11
1413.089925671283
 21
6004.329868341177
 31
0.0
  0
LINE
  5
DE6
330
1F
100
AcDbEntity
  8
MUR-EST
100
AcDbLine
 10
1423.089925671279
 20
6144.329868341177
 30
0.0
 11
1423.089925671279
 21
6014.329868341178
 31
0.0
  0
LINE
  5
DE7
330
1F
100
AcDbEntity
  8
MUR-EST
100
AcDbLine
 10
1413.089925671283
 20
6004.329868341177
 30
0.0
 11
1443.089925671279
 21
6004.329868341177
 31
0.0
  0
LINE
  5
DE8
330
1F
100
AcDbEntity
  8
SERR-INT
100
AcDbLine
 10
1443.089925671279
 20
6009.329868341177
 30
0.0
 11
1443.089925671279
 21
5949.121895447213
 31
0.0
  0
LINE
  5
DE9
330
1F
100
AcDbEntity
  8
MUR-EST
100
AcDbLine
 10
1443.089925671279
 20
6014.329868341178
 30
0.0
 11
1443.089925671279
 21
6004.329868341177
 31
0.0
  0
LINE
  5
DEA
330
1F
100
AcDbEntity
  8
MUR-EST
100
AcDbLine
 10
1423.089925671279
 20
6014.329868341178
 30
0.0
 11
1443.089925671279
 21
6014.329868341178
 31
0.0
  0
LINE
  5
DEB
330
1F
100
AcDbEntity
  8
MUR-EST
100
AcDbLine
 10
1863.089925671276
 20
6004.329868341177
 30
0.0
 11
1863.089925671276
 21
5854.329868341176
 31
0.0
  0
LINE
  5
DEC
330
1F
100
AcDbEntity
  8
MUR-EST
100
AcDbLine
 10
1853.089925671276
 20
6004.329868341177
 30
0.0
 11
1853.089925671276
 21
5854.329868341176
 31
0.0
  0
ARC
  5
DED
330
1F
100
AcDbEntity
  8
SERR-INT
100
AcDbCircle
 10
1993.089925671264
 20
5904.329868341176
 30
0.0
 40
80.00000000000007
100
AcDbArc
 50
0.0
 51
90.0
  0
LINE
  5
DEE
330
1F
100
AcDbEntity
  8
SERR-INT
100
AcDbLine
 10
1993.089925671264
 20
5984.329868341177
 30
0.0
 11
1993.089925671264
 21
5904.329868341176
 31
0.0
  0
LINE
  5
DEF
330
1F
100
AcDbEntity
  8
SERR-INT
100
AcDbLine
 10
1993.089925671264
 20
5904.329868341176
 30
0.0
 11
2073.089925671265
 21
5904.329868341171
 31
0.0
  0
LINE
  5
DF0
330
1F
100
AcDbEntity
  8
MUR-EST
100
AcDbLine
 10
1723.089925671279
 20
6004.329868341177
 30
0.0
 11
1773.089925671276
 21
6004.329868341177
 31
0.0
  0
LINE
  5
DF1
330
1F
100
AcDbEntity
  8
SERR-INT
100
AcDbLine
 10
1883.089925671276
 20
6009.329868341177
 30
0.0
 11
1963.089925671276
 21
6009.329868341177
 31
0.0
  0
LINE
  5
DF2
330
1F
100
AcDbEntity
  8
MUR-EST
100
AcDbLine
 10
1853.089925671276
 20
6144.329868341177
 30
0.0
 11
1853.089925671276
 21
6014.329868341178
 31
0.0
  0
LINE
  5
DF3
330
1F
100
AcDbEntity
  8
MUR-EST
100
AcDbLine
 10
1753.089925671275
 20
6144.329868341177
 30
0.0
 11
1753.089925671275
 21
6014.329868341178
 31
0.0
  0
LINE
  5
DF4
330
1F
100
AcDbEntity
  8
MUR-EST
100
AcDbLine
 10
1863.089925671279
 20
6144.329868341177
 30
0.0
 11
1863.089925671276
 21
6014.329868341178
 31
0.0
  0
ARC
  5
DF5
330
1F
100
AcDbEntity
  8
SERR-INT
100
AcDbCircle
 10
1767.767014266456
 20
6014.263535570928
 30
0.0
 40
65.3587535363939
100
AcDbArc
 50
274.6714249119559
 51
355.6484193287817
  0
LINE
  5
DF6
330
1F
100
AcDbEntity
  8
SERR-INT
100
AcDbLine
 10
1773.089925671276
 20
6009.329868341177
 30
0.0
 11
1833.089925671279
 21
6009.329868341177
 31
0.0
  0
LINE
  5
DF7
330
1F
100
AcDbEntity
  8
MUR-EST
100
AcDbLine
 10
1883.089925671276
 20
6014.329868341178
 30
0.0
 11
1883.089925671276
 21
6004.329868341177
 31
0.0
  0
LINE
  5
DF8
330
1F
100
AcDbEntity
  8
MUR-EST
100
AcDbLine
 10
1833.089925671279
 20
6014.329868341178
 30
0.0
 11
1833.089925671279
 21
6004.329868341177
 31
0.0
  0
LINE
  5
DF9
330
1F
100
AcDbEntity
  8
MUR-EST
100
AcDbLine
 10
1833.089925671279
 20
6014.329868341178
 30
0.0
 11
1853.089925671276
 21
6014.329868341178
 31
0.0
  0
LINE
  5
DFA
330
1F
100
AcDbEntity
  8
MUR-EST
100
AcDbLine
 10
1863.089925671276
 20
6014.329868341178
 30
0.0
 11
1883.089925671276
 21
6014.329868341178
 31
0.0
  0
LINE
  5
DFB
330
1F
100
AcDbEntity
  8
MUR-EST
100
AcDbLine
 10
1833.089925671279
 20
6004.329868341177
 30
0.0
 11
1853.089925671276
 21
6004.329868341177
 31
0.0
  0
LINE
  5
DFC
330
1F
100
AcDbEntity
  8
MUR-EST
100
AcDbLine
 10
1863.089925671276
 20
6004.329868341177
 30
0.0
 11
1883.089925671276
 21
6004.329868341177
 31
0.0
  0
LINE
  5
DFD
330
1F
100
AcDbEntity
  8
SERR-INT
100
AcDbLine
 10
1773.089925671276
 20
6009.329868341177
 30
0.0
 11
1773.089925671276
 21
5949.121895447215
 31
0.0
  0
LINE
  5
DFE
330
1F
100
AcDbEntity
  8
MUR-EST
100
AcDbLine
 10
1773.089925671276
 20
6014.329868341178
 30
0.0
 11
1773.089925671276
 21
6004.329868341177
 31
0.0
  0
LINE
  5
DFF
330
1F
100
AcDbEntity
  8
MUR-EST
100
AcDbLine
 10
1753.089925671275
 20
6014.329868341178
 30
0.0
 11
1773.089925671276
 21
6014.329868341178
 31
0.0
  0
LINE
  5
E00
330
1F
100
AcDbEntity
  8
MUR-EST
100
AcDbLine
 10
1613.089925671279
 20
6004.329868341177
 30
0.0
 11
1663.089925671276
 21
6004.329868341177
 31
0.0
  0
LINE
  5
E01
330
1F
100
AcDbEntity
  8
MUR-EST
100
AcDbLine
 10
1743.089925671279
 20
6144.329868341177
 30
0.0
 11
1743.089925671279
 21
6014.329868341178
 31
0.0
  0
ARC
  5
E02
330
1F
100
AcDbEntity
  8
SERR-INT
100
AcDbCircle
 10
1657.76701426646
 20
6014.263535570928
 30
0.0
 40
65.3587535363939
100
AcDbArc
 50
274.6714249119559
 51
355.6484193287817
  0
LINE
  5
E03
330
1F
100
AcDbEntity
  8
SERR-INT
100
AcDbLine
 10
1663.089925671276
 20
6009.329868341177
 30
0.0
 11
1723.089925671279
 21
6009.329868341177
 31
0.0
  0
LINE
  5
E04
330
1F
100
AcDbEntity
  8
MUR-EST
100
AcDbLine
 10
1723.089925671279
 20
6014.329868341178
 30
0.0
 11
1723.089925671279
 21
6004.329868341177
 31
0.0
  0
LINE
  5
E05
330
1F
100
AcDbEntity
  8
MUR-EST
100
AcDbLine
 10
1723.089925671279
 20
6014.329868341178
 30
0.0
 11
1743.089925671279
 21
6014.329868341178
 31
0.0
  0
LINE
  5
E06
330
1F
100
AcDbEntity
  8
SERR-INT
100
AcDbLine
 10
1663.089925671276
 20
6009.329868341177
 30
0.0
 11
1663.089925671276
 21
5949.121895447213
 31
0.0
  0
LINE
  5
E07
330
1F
100
AcDbEntity
  8
MUR-EST
100
AcDbLine
 10
1663.089925671276
 20
6014.329868341178
 30
0.0
 11
1663.089925671276
 21
6004.329868341177
 31
0.0
  0
LINE
  5
E08
330
1F
100
AcDbEntity
  8
MUR-EST
100
AcDbLine
 10
1643.089925671279
 20
6014.329868341178
 30
0.0
 11
1663.089925671276
 21
6014.329868341178
 31
0.0
  0
LINE
  5
E09
330
1F
100
AcDbEntity
  8
MUR-EST
100
AcDbLine
 10
1963.089925671276
 20
6014.329868341178
 30
0.0
 11
1963.089925671276
 21
6004.329868341177
 31
0.0
  0
LINE
  5
E0A
330
1F
100
AcDbEntity
  8
MUR-EST
100
AcDbLine
 10
1963.089925671276
 20
6014.329868341178
 30
0.0
 11
1983.089925671265
 21
6014.329868341178
 31
0.0
  0
LINE
  5
E0B
330
1F
100
AcDbEntity
  8
MUR-EST
100
AcDbLine
 10
1963.089925671276
 20
6004.329868341177
 30
0.0
 11
1983.089925671265
 21
6004.329868341177
 31
0.0
  0
LINE
  5
E0C
330
1F
100
AcDbEntity
  8
MUR-EST
100
AcDbLine
 10
1643.089925671279
 20
6144.329868341177
 30
0.0
 11
1643.089925671279
 21
6014.329868341178
 31
0.0
  0
LINE
  5
E0D
330
1F
100
AcDbEntity
  8
MUR-EST
100
AcDbLine
 10
1633.089925671279
 20
6144.329868341177
 30
0.0
 11
1633.089925671279
 21
6014.329868341178
 31
0.0
  0
ARC
  5
E0E
330
1F
100
AcDbEntity
  8
SERR-INT
100
AcDbCircle
 10
1883.089925671272
 20
6009.329868341177
 30
0.0
 40
80.00000000000007
100
AcDbArc
 50
270.0
 51
0.0
  0
LINE
  5
E0F
330
1F
100
AcDbEntity
  8
SERR-INT
100
AcDbLine
 10
1883.089925671272
 20
6009.329868341177
 30
0.0
 11
1883.089925671268
 21
5929.329868341176
 31
0.0
  0
ARC
  5
E10
330
1F
100
AcDbEntity
  8
SERR-INT
100
AcDbCircle
 10
1993.089925671264
 20
5539.329868341178
 30
0.0
 40
80.00000000000007
100
AcDbArc
 50
0.0
 51
90.0
  0
LINE
  5
E11
330
1F
100
AcDbEntity
  8
SERR-INT
100
AcDbLine
 10
1993.089925671264
 20
5539.329868341178
 30
0.0
 11
2073.089925671265
 21
5539.329868341172
 31
0.0
  0
ARC
  5
E12
330
1F
100
AcDbEntity
  8
SERR-INT
100
AcDbCircle
 10
1993.089925671257
 20
5729.329868341176
 30
0.0
 40
80.00000000000007
100
AcDbArc
 50
90.0
 51
180.0
  0
LINE
  5
E13
330
1F
100
AcDbEntity
  8
SERR-INT
100
AcDbLine
 10
1993.089925671257
 20
5729.329868341176
 30
0.0
 11
1913.089925671258
 21
5729.329868341176
 31
0.0
  0
LINE
  5
E14
330
1F
100
AcDbEntity
  8
SERR-INT
100
AcDbLine
 10
2689.166254083236
 20
5904.329868341176
 30
0.0
 11
2609.166254083236
 21
5904.329868341171
 31
0.0
  0
ARC
  5
E15
330
1F
100
AcDbEntity
  8
SERR-INT
100
AcDbCircle
 10
2689.166254083236
 20
5904.329868341176
 30
0.0
 40
80.00000000000007
100
AcDbArc
 50
90.0
 51
180.0
  0
ARC
  5
E16
330
1F
100
AcDbEntity
  8
SERR-INT
100
AcDbCircle
 10
2689.166254083236
 20
5539.329868341178
 30
0.0
 40
80.00000000000007
100
AcDbArc
 50
90.0
 51
180.0
  0
LINE
  5
E17
330
1F
100
AcDbEntity
  8
SERR-INT
100
AcDbLine
 10
2689.166254083236
 20
5539.329868341178
 30
0.0
 11
2609.166254083232
 21
5539.329868341172
 31
0.0
  0
LINE
  5
E18
330
1F
100
AcDbEntity
  8
MUR-EST
100
AcDbLine
 10
2261.680862455621
 20
6174.329868341178
 30
0.0
 11
2261.680862455621
 21
6144.329868341169
 31
0.0
  0
ARC
  5
E19
330
1F
100
AcDbEntity
  8
SERR-INT
100
AcDbCircle
 10
2221.293727823707
 20
2520.278342298848
 30
0.0
 40
90.0
100
AcDbArc
 50
180.560174123775
 51
270.5601741237749
  0
LINE
  5
E1A
330
1F
100
AcDbEntity
  8
SERR-INT
100
AcDbLine
 10
2222.173633261576
 20
2430.282643699275
 30
0.0
 11
2221.293727823707
 21
2520.278342298848
 31
0.0
  0
ARC
  5
E1B
330
1F
100
AcDbEntity
  8
SERR-INT
100
AcDbCircle
 10
2041.30233062461
 20
2518.518531423112
 30
0.0
 40
90.0
100
AcDbArc
 50
270.5601741237749
 51
0.5601741237749883
  0
LINE
  5
E1C
330
1F
100
AcDbEntity
  8
SERR-INT
100
AcDbLine
 10
2042.182236062475
 20
2428.522832823607
 30
0.0
 11
2041.30233062461
 21
2518.518531423112
 31
0.0
  0
ARC
  5
E1D
330
1F
100
AcDbEntity
  8
SERR-INT
100
AcDbCircle
 10
2635.67907070462
 20
2524.329868341173
 30
0.0
 40
90.0
100
AcDbArc
 50
180.560174123775
 51
270.5601741237749
  0
ARC
  5
E1E
330
1F
100
AcDbEntity
  8
SERR-INT
100
AcDbCircle
 10
2455.687673505523
 20
2522.570057465439
 30
0.0
 40
90.0
100
AcDbArc
 50
270.5601741237749
 51
0.5601741237749883
  0
LINE
  5
E1F
330
1F
100
AcDbEntity
  8
SERR-INT
100
AcDbLine
 10
2456.567578943387
 20
2432.574358865992
 30
0.0
 11
2455.687673505523
 21
2522.570057465439
 31
0.0
  0
LINE
  5
E20
330
1F
100
AcDbEntity
  8
SERR-INT
100
AcDbLine
 10
2636.558976142489
 20
2434.334169741575
 30
0.0
 11
2635.67907070462
 21
2524.329868341173
 31
0.0
  0
ARC
  5
E21
330
1F
100
AcDbEntity
  8
SERR-INT
100
AcDbCircle
 10
1129.175147163313
 20
1183.665920849053
 30
0.0
 40
79.8528226673639
100
AcDbArc
 50
270.0
 51
0.0
  0
LINE
  5
E22
330
1F
100
AcDbEntity
  8
SERR-INT
100
AcDbLine
 10
1209.175147163313
 20
1183.665920849053
 30
0.0
 11
1129.175147163313
 21
1183.665920849053
 31
0.0
  0
LINE
  5
E23
330
1F
100
AcDbEntity
  8
MUR-EST
100
AcDbLine
 10
1129.175147163313
 20
1193.665920849053
 30
0.0
 11
1129.175147163313
 21
1173.665920849053
 31
0.0
  0
LINE
  5
E24
330
1F
100
AcDbEntity
  8
SERR-INT
100
AcDbLine
 10
1129.175147163313
 20
1183.665920849053
 30
0.0
 11
1129.175147163313
 21
1103.81309818169
 31
0.0
  0
LINE
  5
E25
330
1F
100
AcDbEntity
  8
MUR-EST
100
AcDbLine
 10
1209.175147163313
 20
1193.665920849053
 30
0.0
 11
1209.175147163313
 21
1173.665920849053
 31
0.0
  0
LINE
  5
E26
330
1F
100
AcDbEntity
  8
MUR-EST
100
AcDbLine
 10
1129.175147163313
 20
1193.665920849053
 30
0.0
 11
1048.626762231487
 21
1193.665920849053
 31
0.0
  0
LINE
  5
E27
330
1F
100
AcDbEntity
  8
MUR-EST
100
AcDbLine
 10
1129.175147163313
 20
1173.665920849053
 30
0.0
 11
1048.626762231487
 21
1173.665920849053
 31
0.0
  0
ARC
  5
E28
330
1F
100
AcDbEntity
  8
SERR-INT
100
AcDbCircle
 10
2799.166254083225
 20
6004.329868341192
 30
0.0
 40
80.00000000000007
100
AcDbArc
 50
180.0
 51
270.0
  0
LINE
  5
E29
330
1F
100
AcDbEntity
  8
SERR-INT
100
AcDbLine
 10
2799.166254083225
 20
6004.329868341192
 30
0.0
 11
2799.166254083232
 21
5924.329868341191
 31
0.0
  0
LINE
  5
E2A
330
1F
100
AcDbEntity
  8
SERR-INT
100
AcDbLine
 10
2681.379339132497
 20
1374.329868341211
 30
0.0
 11
2681.379339132497
 21
1454.329868341211
 31
0.0
  0
ARC
  5
E2B
330
1F
100
AcDbEntity
  8
SERR-INT
100
AcDbCircle
 10
2681.379339132497
 20
1374.329868341211
 30
0.0
 40
80.0
100
AcDbArc
 50
0.0
 51
90.0
  0
LINE
  5
E2C
330
1F
100
AcDbEntity
  8
SERR-INT
100
AcDbLine
 10
2721.379339132497
 20
1374.329868341211
 30
0.0
 11
2721.379339132497
 21
1410.514778982197
 31
0.0
  0
LINE
  5
E2D
330
1F
100
AcDbEntity
  8
SERR-INT
100
AcDbLine
 10
2721.379339132497
 20
1410.514778982197
 30
0.0
 11
2721.379339132497
 21
1352.666822487558
 31
0.0
  0
LINE
  5
E2E
330
1F
100
AcDbEntity
  8
SERR-INT
100
AcDbLine
 10
2646.412328769546
 20
1571.934413334242
 30
0.0
 11
2646.412328769546
 21
1499.422476902486
 31
0.0
  0
LINE
  5
E2F
330
1F
100
AcDbEntity
  8
SERR-INT
100
AcDbLine
 10
2646.412328769546
 20
1571.934413334242
 30
0.0
 11
2718.924265201305
 21
1571.934413334242
 31
0.0
  0
ARC
  5
E30
330
1F
100
AcDbEntity
  8
SERR-INT
100
AcDbCircle
 10
2646.412328769546
 20
1571.934413334242
 30
0.0
 40
72.51193643175618
100
AcDbArc
 50
270.0
 51
0.0
  0
LINE
  5
E31
330
1F
100
AcDbEntity
  8
SERR-INT
100
AcDbLine
 10
2682.668296985426
 20
1608.119323975227
 30
0.0
 11
2682.668296985426
 21
1550.271367480589
 31
0.0
  0
LINE
  5
E32
330
1F
100
AcDbEntity
  8
SCALE
100
AcDbLine
 10
2559.166254083236
 20
6738.361083325995
 30
0.0
 11
2223.089925671272
 21
6738.361083326002
 31
0.0
  0
LINE
  5
E33
330
1F
100
AcDbEntity
  8
SCALE
100
AcDbLine
 10
2549.166254083236
 20
6728.361083325996
 30
0.0
 11
2233.089925671265
 21
6728.361083325999
 31
0.0
  0
LINE
  5
E34
330
1F
100
AcDbEntity
  8
SCALE
100
AcDbLine
 10
2549.166254083232
 20
6174.329868341182
 30
0.0
 11
2549.166254083236
 21
6728.361083325996
 31
0.0
  0
LINE
  5
E35
330
1F
100
AcDbEntity
  8
SCALE
100
AcDbLine
 10
2559.166254083232
 20
6174.329868341182
 30
0.0
 11
2559.166254083236
 21
6738.361083325995
 31
0.0
  0
LINE
  5
E36
330
1F
100
AcDbEntity
  8
SCALE
100
AcDbLine
 10
2223.089925671265
 20
6174.329868341178
 30
0.0
 11
2223.089925671272
 21
6738.361083326002
 31
0.0
  0
LINE
  5
E37
330
1F
100
AcDbEntity
  8
SCALE
100
AcDbLine
 10
2233.089925671272
 20
6174.329868341178
 30
0.0
 11
2233.089925671265
 21
6728.361083325999
 31
0.0
  0
LINE
  5
E38
330
1F
100
AcDbEntity
  8
SCALE
100
AcDbLine
 10
2233.089925671269
 20
6585.361083325999
 30
0.0
 11
2363.089925671268
 21
6585.361083325999
 31
0.0
  0
LINE
  5
E39
330
1F
100
AcDbEntity
  8
SCALE
100
AcDbLine
 10
2363.089925671264
 20
6329.209908783269
 30
0.0
 11
2549.166254083232
 21
6329.209908783269
 31
0.0
  0
LINE
  5
E3A
330
1F
100
AcDbEntity
  8
SCALE
100
AcDbLine
 10
2419.166254083232
 20
6354.209908783269
 30
0.0
 11
2549.166254083232
 21
6354.209908783269
 31
0.0
  0
LINE
  5
E3B
330
1F
100
AcDbEntity
  8
SCALE
100
AcDbLine
 10
2419.166254083232
 20
6379.209908783269
 30
0.0
 11
2549.166254083232
 21
6379.209908783269
 31
0.0
  0
LINE
  5
E3C
330
1F
100
AcDbEntity
  8
SCALE
100
AcDbLine
 10
2419.166254083232
 20
6404.209908783268
 30
0.0
 11
2549.166254083232
 21
6404.209908783268
 31
0.0
  0
LINE
  5
E3D
330
1F
100
AcDbEntity
  8
SCALE
100
AcDbLine
 10
2419.166254083232
 20
6429.209908783268
 30
0.0
 11
2549.166254083232
 21
6429.209908783268
 31
0.0
  0
LINE
  5
E3E
330
1F
100
AcDbEntity
  8
SCALE
100
AcDbLine
 10
2419.166254083232
 20
6454.209908783268
 30
0.0
 11
2549.166254083232
 21
6454.209908783268
 31
0.0
  0
LINE
  5
E3F
330
1F
100
AcDbEntity
  8
SCALE
100
AcDbLine
 10
2419.166254083232
 20
6479.209908783268
 30
0.0
 11
2549.166254083232
 21
6479.209908783268
 31
0.0
  0
LINE
  5
E40
330
1F
100
AcDbEntity
  8
SCALE
100
AcDbLine
 10
2419.166254083232
 20
6504.209908783268
 30
0.0
 11
2549.166254083232
 21
6504.209908783268
 31
0.0
  0
LINE
  5
E41
330
1F
100
AcDbEntity
  8
SCALE
100
AcDbLine
 10
2419.166254083232
 20
6529.209908783268
 30
0.0
 11
2549.166254083232
 21
6529.209908783268
 31
0.0
  0
LINE
  5
E42
330
1F
100
AcDbEntity
  8
SCALE
100
AcDbLine
 10
2419.166254083232
 20
6554.209908783268
 30
0.0
 11
2549.166254083232
 21
6554.209908783268
 31
0.0
  0
LINE
  5
E43
330
1F
100
AcDbEntity
  8
SCALE
100
AcDbLine
 10
2414.166254083232
 20
6334.209908783271
 30
0.0
 11
2414.166254083232
 21
6580.361083326
 31
0.0
  0
LINE
  5
E44
330
1F
100
AcDbEntity
  8
SCALE
100
AcDbLine
 10
2419.166254083232
 20
6329.209908783269
 30
0.0
 11
2419.166254083232
 21
6585.361083325999
 31
0.0
  0
LINE
  5
E45
330
1F
100
AcDbEntity
  8
SCALE
100
AcDbLine
 10
2363.089925671268
 20
6329.209908783269
 30
0.0
 11
2363.089925671268
 21
6585.361083325999
 31
0.0
  0
LINE
  5
E46
330
1F
100
AcDbEntity
  8
SCALE
100
AcDbLine
 10
2368.089925671272
 20
6334.209908783271
 30
0.0
 11
2368.089925671272
 21
6580.361083326
 31
0.0
  0
LINE
  5
E47
330
1F
100
AcDbEntity
  8
SCALE
100
AcDbLine
 10
2296.704110798796
 20
6365.361083325999
 30
0.0
 11
2296.704110798796
 21
6536.260397039955
 31
0.0
  0
LINE
  5
E48
330
1F
100
AcDbEntity
  8
SCALE
100
AcDbLine
 10
2296.704110798792
 20
6359.273518464546
 30
0.0
 11
2296.704110798792
 21
6513.976696712885
 31
0.0
  0
LINE
  5
E49
330
1F
100
AcDbEntity
  8
SCALE
100
AcDbLine
 10
2486.666254083232
 20
6592.147408783269
 30
0.0
 11
2486.666254083232
 21
6329.209908783269
 31
0.0
  0
LINE
  5
E4A
330
1F
100
AcDbEntity
  8
SCALE
100
AcDbLine
 10
2486.666254083232
 20
6592.147408783269
 30
0.0
 11
2486.666254083232
 21
6329.209908783269
 31
0.0
  0
LINE
  5
E4B
330
1F
100
AcDbEntity
  8
SCALE
100
AcDbLine
 10
2233.089925671269
 20
6360.361083325999
 30
0.0
 11
2363.089925671268
 21
6360.361083325999
 31
0.0
  0
LINE
  5
E4C
330
1F
100
AcDbEntity
  8
SCALE
100
AcDbLine
 10
2233.089925671269
 20
6385.361083325999
 30
0.0
 11
2363.089925671268
 21
6385.361083325999
 31
0.0
  0
LINE
  5
E4D
330
1F
100
AcDbEntity
  8
SCALE
100
AcDbLine
 10
2233.089925671269
 20
6410.361083325999
 30
0.0
 11
2363.089925671268
 21
6410.361083325999
 31
0.0
  0
LINE
  5
E4E
330
1F
100
AcDbEntity
  8
SCALE
100
AcDbLine
 10
2368.089925671272
 20
6334.209908783271
 30
0.0
 11
2414.166254083232
 21
6334.209908783271
 31
0.0
  0
LWPOLYLINE
  5
E4F
330
1F
100
AcDbEntity
  8
SCALE
100
AcDbPolyline
 90
        3
 70
     1
 43
0.0
 10
2508.457900152472
 20
6366.954146955754
 10
2486.666254083232
 20
6329.209908783269
 10
2464.874608013991
 20
6366.954146955754
  0
LWPOLYLINE
  5
E50
330
1F
100
AcDbEntity
  8
SCALE
100
AcDbPolyline
 90
        3
 70
     1
 43
0.0
 10
2318.495756868036
 20
6498.516158867468
 10
2296.704110798796
 20
6536.260397039956
 10
2274.912464729555
 20
6498.516158867468
  0
LINE
  5
E51
330
1F
100
AcDbEntity
  8
SCALE
100
AcDbLine
 10
2233.089925671269
 20
6460.361083325999
 30
0.0
 11
2363.089925671268
 21
6460.361083325999
 31
0.0
  0
LINE
  5
E52
330
1F
100
AcDbEntity
  8
SCALE
100
AcDbLine
 10
2233.089925671269
 20
6485.361083325999
 30
0.0
 11
2363.089925671268
 21
6485.361083325999
 31
0.0
  0
LINE
  5
E53
330
1F
100
AcDbEntity
  8
SCALE
100
AcDbLine
 10
2233.089925671269
 20
6435.361083325999
 30
0.0
 11
2363.089925671268
 21
6435.361083325999
 31
0.0
  0
LINE
  5
E54
330
1F
100
AcDbEntity
  8
SCALE
100
AcDbLine
 10
2233.089925671269
 20
6510.361083325999
 30
0.0
 11
2363.089925671268
 21
6510.361083325999
 31
0.0
  0
LINE
  5
E55
330
1F
100
AcDbEntity
  8
SCALE
100
AcDbLine
 10
2233.089925671269
 20
6535.361083325999
 30
0.0
 11
2363.089925671268
 21
6535.361083325999
 31
0.0
  0
LINE
  5
E56
330
1F
100
AcDbEntity
  8
SCALE
100
AcDbLine
 10
2233.089925671269
 20
6560.361083325999
 30
0.0
 11
2363.089925671268
 21
6560.361083325999
 31
0.0
  0
LINE
  5
E57
330
1F
100
AcDbEntity
  8
SCALE
100
AcDbLine
 10
2414.166254083232
 20
6580.361083326
 30
0.0
 11
2368.089925671272
 21
6580.361083326
 31
0.0
  0
LINE
  5
E58
330
1F
100
AcDbEntity
  8
SCALE
100
AcDbLine
 10
2419.166254083232
 20
6585.361083325999
 30
0.0
 11
2363.089925671268
 21
6585.361083325999
 31
0.0
  0
LINE
  5
E59
330
1F
100
AcDbEntity
  8
SCALE
100
AcDbLine
 10
2368.089925671268
 20
6508.43800640292
 30
0.0
 11
2223.089925671268
 21
6564.207237172151
 31
0.0
  0
LINE
  5
E5A
330
1F
100
AcDbEntity
  8
SCALE
100
AcDbLine
 10
2368.089925671268
 20
6513.795078817223
 30
0.0
 11
2223.089925671268
 21
6569.564309586453
 31
0.0
  0
LINE
  5
E5B
330
1F
100
AcDbEntity
  8
SCALE
100
AcDbLine
 10
2486.666254083232
 20
6592.147408783269
 30
0.0
 11
2486.666254083232
 21
6665.764545650311
 31
0.0
  0
LINE
  5
E5C
330
1F
100
AcDbEntity
  8
SCALE
100
AcDbLine
 10
2486.666254083232
 20
6665.764545650311
 30
0.0
 11
2296.704110798796
 21
6665.764545650311
 31
0.0
  0
LINE
  5
E5D
330
1F
100
AcDbEntity
  8
SCALE
100
AcDbLine
 10
2296.704110798796
 20
6536.260397039955
 30
0.0
 11
2296.704110798796
 21
6665.764545650311
 31
0.0
  0
TEXT
  5
E5E
330
1F
100
AcDbEntity
  8
VVF-R
100
AcDbText
 10
2639.512797241957
 20
6559.145636903831
 30
0.0
 40
20.0
  1
SCALA ESTERNA DI SICUREZZA
  7
ROMANS
100
AcDbText
  0
LINE
  5
E5F
330
1F
100
AcDbEntity
  8
VVF-R
100
AcDbLine
 10
2639.773675585056
 20
6551.244968600419
 30
0.0
 11
3116.736604529301
 21
6551.244968600419
 31
0.0
  0
LINE
  5
E60
330
1F
100
AcDbEntity
  8
VVF-R
100
AcDbLine
 10
2639.773675585056
 20
6551.244968600419
 30
0.0
 11
2549.166254083232
 21
6429.209908783268
 31
0.0
  0
LWPOLYLINE
  5
E63
330
1F
100
AcDbEntity
  8
TT
100
AcDbPolyline
 90
        4
 70
     1
 43
0.0
 10
367.9982384351934
 20
7080.863673247583
 10
9089.85125049725
 20
7080.863673247583
 10
9089.85125049725
 20
282.9823535494561
 10
367.9982384351934
 20
282.9823535494561
  0
LWPOLYLINE
  5
E64
330
1F
100
AcDbEntity
  8
TT
100
AcDbPolyline
 90
        4
 70
     1
 43
0.0
 10
342.9982384351934
 20
7105.863673247583
 10
9114.851250497251
 20
7105.863673247583
 10
9114.851250497251
 20
257.982353549457
 10
342.9982384351934
 20
257.9823535494561
  0
IMAGE
  5
E86
330
1F
100
AcDbEntity
  8
TT
 92
      140
310
8C000000010000008400000006000000050000007C190DFB16E2B340511410C7FA46A64000000000000000007C190DFB16E2B34050B45ADCA971AF4000000000000000002684E9B38BFEB94050B45ADCA971AF4000000000000000002684E9B38BFEB940511410C7FA46A64000000000000000007C190DFB16E2B340511410
310
C7FA46A6400000000000000000
100
AcDbRasterImage
 90
        0
 10
5090.089768236849
 20
2851.489799978714
 30
0.0
 11
0.763894504763205
 21
0.0
 31
0.0
 12
0.0
 22
0.763894504763205
 32
0.0
 13
2048.0
 23
1536.0
340
E84
 70
     7
280
     0
281
    50
282
    50
283
     0
360
E85
 71
     1
 91
        2
 14
-0.5
 24
-0.5
 14
2047.5
 24
1535.5
  0
IMAGE
  5
E89
330
1F
100
AcDbEntity
  8
TT
 92
      140
310
8C00000001000000840000000600000005000000C1E1326FC6E4B34050C615FA7A6193400000000000000000C1E1326FC6E4B340343BCA5010E2A2400000000000000000C971B251A805BA40343BCA5010E2A2400000000000000000C971B251A805BA4050C615FA7A6193400000000000000000C1E1326FC6E4B34050C615
310
FA7A6193400000000000000000
100
AcDbRasterImage
 90
        0
 10
5092.77513425838
 20
1240.370094623784
 30
0.0
 11
0.7660558409861587
 21
0.0
 31
0.0
 12
0.0
 22
0.7660558409861587
 32
0.0
 13
2048.0
 23
1536.0
340
E87
 70
     7
280
     0
281
    50
282
    50
283
     0
360
E88
 71
     1
 91
        2
 14
-0.5
 24
-0.5
 14
2047.5
 24
1535.5
  0
IMAGE
  5
E8C
330
1F
100
AcDbEntity
  8
TT
 92
      140
310
8C000000010000008400000006000000050000007C190DFB16E2B3405C0A4AD4CD25B14000000000000000007C190DFB16E2B3405B5AEF5E25BBB54000000000000000002584E9B38BFEB9405B5AEF5E25BBB54000000000000000002584E9B38BFEB9405C0A4AD4CD25B14000000000000000007C190DFB16E2B3405C0A4A
310
D4CD25B1400000000000000000
100
AcDbRasterImage
 90
        0
 10
5090.089768236849
 20
4389.804020526437
 30
0.0
 11
0.7638945047632048
 21
0.0
 31
0.0
 12
0.0
 22
0.7638945047632048
 32
0.0
 13
2048.0
 23
1536.0
340
E8A
 70
     7
280
     0
281
    50
282
    50
283
     0
360
E8B
 71
     1
 91
        2
 14
-0.5
 24
-0.5
 14
2047.5
 24
1535.5
  0
LINE
  5
E9B
330
1F
100
AcDbEntity
  8
TT
  6
HIDDEN
 48
5.0
100
AcDbLine
 10
5092.77513425838
 20
1828.700980501154
 30
0.0
 11
2350.992981185289
 21
1617.979875251034
 31
0.0
  0
LINE
  5
E9F
330
1F
100
AcDbEntity
  8
TT
  6
HIDDEN
 48
5.0
100
AcDbLine
 10
5090.089768236849
 20
3438.160779636856
 30
0.0
 11
2452.499849358785
 21
2741.308983760573
 31
0.0
  0
LINE
  5
EA0
330
1F
100
AcDbEntity
  8
TT
  6
HIDDEN
 48
5.0
100
AcDbLine
 10
5090.089768236849
 20
4976.475000184579
 30
0.0
 11
2313.940318201778
 21
5240.001486553574
 31
0.0
  0
LINE
  5
ECA
330
1F
100
AcDbEntity
  8
VISTE
100
AcDbLine
 10
2251.877788632625
 20
5247.540761440998
 30
0.0
 11
2313.94031819144
 21
5240.00148657057
 31
0.0
  0
LINE
  5
ECB
330
1F
100
AcDbEntity
  8
VISTE
100
AcDbLine
 10
2313.94031819144
 20
5240.00148657057
 30
0.0
 11
2289.438256987328
 21
5297.518851213914
 31
0.0
  0
CIRCLE
  5
ECC
330
1F
100
AcDbEntity
  8
VISTE
100
AcDbCircle
 10
2313.940318201778
 20
5240.001486553574
 30
0.0
 40
7.124514393508434
  0
HATCH
  5
ECD
330
1F
100
AcDbEntity
  8
VISTE
100
AcDbHatch
 10
0.0
 20
0.0
 30
0.0
210
0.0
220
0.0
230
1.0
  2
ANSI38
 70
     0
 71
     0
 91
        2
 92
        7
 72
     1
 73
     1
 93
        5
 10
2313.940318212027
 20
5240.001486574484
 42
0.0
 10
2306.86779754434
 20
5240.860647124774
 42
0.0772910848649159
 10
2306.940891528977
 20
5238.672301993254
 42
1.0
 10
2320.939744874578
 20
5241.3306711139
 42
0.4786977624093297
 10
2311.148112735548
 20
5246.556049386406
 42
0.0
 97
        0
 92
       22
 72
     1
 73
     1
 93
        3
 10
2311.148112737835
 20
5246.556049386841
 42
0.2679491916360007
 10
2306.86779754434
 20
5240.860647124774
 42
0.0
 10
2313.94031819199
 20
5240.001486580158
 42
0.0
 97
        0
 75
     0
 76
     1
 52
-186.9262788396668
 41
9.999999999999998
 77
     0
 78
     2
 53
218.0737211603331
 43
19867184.64766184
 44
47855687.27204182
 45
0.7708436008928259
 46
-0.9840224301115201
 79
     0
 53
308.0737211603332
 43
19867184.64766184
 44
47855687.27204182
 45
2.525709631897171
 46
-1.197201259330214
 79
     2
 49
3.124999999999999
 49
-1.874999999999999
 47
0.0383932725949472
 98
        2
 10
2315.284970659798
 20
5239.650227739931
 10
2310.315251100361
 20
5243.347968071891
  0
HATCH
  5
ECE
330
1F
100
AcDbEntity
  8
VISTE
100
AcDbHatch
 10
0.0
 20
0.0
 30
0.0
210
0.0
220
0.0
230
1.0
  2
ANSI38
 70
     0
 71
     0
 91
        2
 92
        7
 72
     1
 73
     1
 93
        5
 10
2452.499849381786
 20
2741.308983764208
 42
0.0
 10
2449.136767585325
 20
2747.589778799579
 42
0.0772910848649159
 10
2447.388249284321
 20
2746.271871027279
 42
1.0
 10
2457.611449433255
 20
2736.34609649387
 42
0.4786977624093297
 10
2456.257636512475
 20
2747.36189553944
 42
0.0
 97
        0
 92
       22
 72
     1
 73
     1
 93
        3
 10
2456.257636514145
 20
2747.361895537819
 42
0.2679491916360007
 10
2449.136767585325
 20
2747.589778799579
 42
0.0
 10
2452.499849374909
 20
2741.308983783865
 42
0.0
 97
        0
 75
     0
 76
     1
 52
-241.8329636635619
 41
9.999999999999998
 77
     0
 78
     2
 53
163.167036336438
 43
50575000.99778124
 44
11258661.11306895
 45
-0.3619781480063841
 46
-1.196441315053048
 79
     0
 53
253.167036336438
 43
50575000.99778124
 44
11258661.11306895
 45
0.47248501904028
 46
-2.75486077811248
 79
     2
 49
3.124999999999999
 49
-1.874999999999999
 47
0.0383932725949472
 98
        2
 10
2452.98549736272
 20
2740.006824398859
 10
2453.153910178329
 20
2746.198999556718
  0
CIRCLE
  5
ECF
330
1F
100
AcDbEntity
  8
VISTE
100
AcDbCircle
 10
2452.499849358785
 20
2741.308983760573
 30
0.0
 40
7.124514393508434
  0
LINE
  5
ED0
330
1F
100
AcDbEntity
  8
VISTE
100
AcDbLine
 10
2452.499849366749
 20
2741.308983778802
 30
0.0
 11
2485.475048420444
 21
2794.424278055823
 31
0.0
  0
LINE
  5
ED1
330
1F
100
AcDbEntity
  8
VISTE
100
AcDbLine
 10
2422.988254707715
 20
2796.423991004525
 30
0.0
 11
2452.499849366749
 21
2741.308983778802
 31
0.0
  0
LINE
  5
ED2
330
1F
100
AcDbEntity
  8
VISTE
100
AcDbLine
 10
2309.511802358976
 20
1571.204774550668
 30
0.0
 11
2350.992981165429
 21
1617.979875252191
 31
0.0
  0
LINE
  5
ED3
330
1F
100
AcDbEntity
  8
VISTE
100
AcDbLine
 10
2350.992981165429
 20
1617.979875252191
 30
0.0
 11
2289.743966307218
 21
1630.516079528766
 31
0.0
  0
CIRCLE
  5
ED4
330
1F
100
AcDbEntity
  8
VISTE
100
AcDbCircle
 10
2350.992981185289
 20
1617.979875251034
 30
0.0
 40
7.124514393508434
  0
HATCH
  5
ED5
330
1F
100
AcDbEntity
  8
VISTE
100
AcDbHatch
 10
0.0
 20
0.0
 30
0.0
210
0.0
220
0.0
230
1.0
  2
ANSI38
 70
     0
 71
     0
 91
        2
 92
        7
 72
     1
 73
     1
 93
        5
 10
2350.992981173912
 20
1617.979875271353
 42
0.0
 10
2346.265869722385
 20
1612.649479153719
 42
0.0772910848649159
 10
2348.107834858643
 20
1611.465687963496
 42
1.0
 10
2353.878127511929
 20
1624.494062538577
 42
0.4786977624093297
 10
2344.013167020007
 20
1619.408475794685
 42
0.0
 97
        0
 92
       22
 72
     1
 73
     1
 93
        3
 10
2344.013167020949
 20
1619.408475796813
 42
0.2679491916360007
 10
2346.265869722385
 20
1612.649479153719
 42
0.0
 10
2350.992981157854
 20
1617.979875258092
 42
0.0
 97
        0
 75
     0
 76
     1
 52
-131.5673107633133
 41
9.999999999999996
 77
     0
 78
     2
 53
273.4326892366866
 43
-28073773.91471312
 44
43544810.3568613
 45
1.247757286383135
 46
0.0748448680792025
 79
     0
 53
3.432689236686713
 43
-28073773.91471312
 44
43544810.3568613
 45
2.420669704687068
 46
1.39744702254154
 79
     2
 49
3.124999999999998
 49
-1.874999999999999
 47
0.0383932725949472
 98
        2
 10
2352.046317114637
 20
1618.886493366322
 10
2346.179124051706
 20
1616.899676408379
  0
TEXT
  5
ED6
330
1F
100
AcDbEntity
  8
VVF-R
100
AcDbText
 10
4388.136469575584
 20
7434.820865342505
 30
0.0
 40
200.0
  1
TAV. 6
  7
ROMANS
100
AcDbText
  0
VIEWPORT
  5
E73
330
E6C
100
AcDbEntity
 67
     1
  8
0
100
AcDbViewport
 10
2884.593200683594
 20
1979.506607055664
 30
0.0
 40
7810.216021748823
 41
4443.035612792969
 68
     1
 69
     1
 12
2884.593200683594
 22
1979.506607055664
 13
0.0
 23
0.0
 14
10.0
 24
10.0
 15
10.0
 25
10.0
 16
0.0
 26
0.0
 36
1.0
 17
0.0
 27
0.0
 37
0.0
 42
50.0
 43
0.0
 44
0.0
 45
4443.035612792969
 50
0.0
 51
0.0
 72
  1000
 90
    32800
  1

281
     0
 71
     1
 74
     0
110
0.0
120
0.0
130
0.0
111
1.0
121
0.0
131
0.0
112
0.0
122
1.0
132
0.0
 79
     0
146
0.0
170
     0
  0
VIEWPORT
  5
E75
330
E6C
100
AcDbEntity
 67
     1
  8
TT
100
AcDbViewport
 10
2884.59315776825
 20
1979.506721496582
 30
0.0
 40
4615.349052429199
 41
3167.210754394532
 68
     2
 69
     2
 12
171.4352222483248
 22
3508.68028727076
 13
0.0
 23
0.0
 14
10.0
 24
10.0
 15
10.0
 25
10.0
 16
0.0
 26
0.0
 36
1.0
 17
0.0
 27
0.0
 37
0.0
 42
50.0
 43
0.0
 44
0.0
 45
7306.778752765421
 50
0.0
 51
0.0
 72
  1000
 90
    32864
  1

281
     0
 71
     1
 74
     0
110
0.0
120
0.0
130
0.0
111
1.0
121
0.0
131
0.0
112
0.0
122
1.0
132
0.0
 79
     0
146
0.0
170
     0
  0
ENDSEC
  0
SECTION
  2
OBJECTS
  0
DICTIONARY
  5
C
330
0
100
AcDbDictionary
281
     1
  3
ACAD_COLOR
350
3BA
  3
ACAD_GROUP
350
D
  3
ACAD_IMAGE_DICT
350
E82
  3
ACAD_IMAGE_VARS
350
E83
  3
ACAD_LAYOUT
350
1A
  3
ACAD_MATERIAL
350
3B9
  3
ACAD_MLINESTYLE
350
17
  3
ACAD_PLOTSETTINGS
350
19
  3
ACAD_PLOTSTYLENAME
350
E
  3
AcDbVariableDictionary
350
27B
  0
IMAGEDEF_REACTOR
  5
E85
330
E86
100
AcDbRasterImageDefReactor
 90
        2
330
E86
  0
IMAGEDEF_REACTOR
  5
E88
330
E89
100
AcDbRasterImageDefReactor
 90
        2
330
E89
  0
IMAGEDEF_REACTOR
  5
E8B
330
E8C
100
AcDbRasterImageDefReactor
 90
        2
330
E8C
  0
DICTIONARY
  5
3BA
102
{ACAD_REACTORS
330
C
102
}
330
C
100
AcDbDictionary
281
     1
  0
DICTIONARY
  5
D
102
{ACAD_REACTORS
330
C
102
}
330
C
100
AcDbDictionary
281
     1
  0
DICTIONARY
  5
E82
102
{ACAD_REACTORS
330
C
102
}
330
C
100
AcDbDictionary
281
     1
  3
DSC00011
350
E8A
  3
DSC00013
350
E87
  3
DSC00016
350
E84
  0
RASTERVARIABLES
  5
E83
102
{ACAD_REACTORS
330
C
102
}
330
C
100
AcDbRasterVariables
 90
        0
 70
     1
 71
     1
 72
     1
  0
DICTIONARY
  5
1A
102
{ACAD_REACTORS
330
C
102
}
330
C
100
AcDbDictionary
281
     1
  3
Layout1
350
E6D
  3
Model
350
22
  0
DICTIONARY
  5
3B9
102
{ACAD_REACTORS
330
C
102
}
330
C
100
AcDbDictionary
281
     1
  0
DICTIONARY
  5
17
102
{ACAD_REACTORS
330
C
102
}
330
C
100
AcDbDictionary
281
     1
  3
Standard
350
18
  0
DICTIONARY
  5
19
102
{ACAD_REACTORS
330
C
102
}
330
C
100
AcDbDictionary
281
     1
  3
ISO A3 title block - no output device
350
D1
  0
ACDBDICTIONARYWDFLT
  5
E
102
{ACAD_REACTORS
330
C
102
}
330
C
100
AcDbDictionary
281
     1
  3
Normal
350
F
100
AcDbDictionaryWithDefault
340
F
  0
DICTIONARY
  5
27B
102
{ACAD_REACTORS
330
C
102
}
330
C
100
AcDbDictionary
281
     1
  3
DIMASSOC
350
3B7
  3
HIDETEXT
350
3B6
  3
SORTENTS
350
27C
  0
IMAGEDEF
  5
E8A
102
{ACAD_REACTORS
330
E82
330
E8B
102
}
330
E82
100
AcDbRasterImageDef
 90
        0
  1
C:\Documents and Settings\u215625\Desktop\foto millio42\141105\DSC00011.JPG
 10
2048.0
 20
1536.0
 11
0.00048828125
 21
0.00048828125
280
     1
281
     0
  0
IMAGEDEF
  5
E87
102
{ACAD_REACTORS
330
E82
330
E88
102
}
330
E82
100
AcDbRasterImageDef
 90
        0
  1
C:\Documents and Settings\u215625\Desktop\foto millio42\141105\DSC00013.JPG
 10
2048.0
 20
1536.0
 11
0.00048828125
 21
0.00048828125
280
     1
281
     0
  0
IMAGEDEF
  5
E84
102
{ACAD_REACTORS
330
E82
330
E85
102
}
330
E82
100
AcDbRasterImageDef
 90
        0
  1
C:\Documents and Settings\u215625\Desktop\foto millio42\141105\DSC00016.JPG
 10
2048.0
 20
1536.0
 11
0.00048828125
 21
0.00048828125
280
     1
281
     0
  0
LAYOUT
  5
E6D
102
{ACAD_REACTORS
330
1A
102
}
330
1A
100
AcDbPlotSettings
  1

  2
HP uff. 19
  4
A4
  6

 40
6.011333465576171
 41
4.233341693878173
 42
6.011322021484375
 43
4.23333740234375
 44
209.9733276367187
 45
296.9259948730469
 46
0.0
 47
0.0
 48
0.0
 49
0.0
140
0.0
141
0.0
142
1.0
143
20.0
 70
   672
 72
     1
 73
     1
 74
     5
  7
monochrome.ctb
 75
     0
147
1.0
 76
     1
 77
     2
 78
   300
148
0.0
149
0.0
100
AcDbLayout
  1
Layout1
 70
     1
 71
     1
 10
-84.666748046875
 20
-120.2266693115234
 11
5853.853149414063
 21
4079.239883422851
 12
0.0
 22
0.0
 32
0.0
 14
576.9186315536499
 24
395.9013442993164
 34
0.0
 15
5192.267683982849
 25
3563.112098693848
 35
0.0
146
0.0
 13
0.0
 23
0.0
 33
0.0
 16
1.0
 26
0.0
 36
0.0
 17
0.0
 27
1.0
 37
0.0
 76
     0
330
E6C
331
E73
  0
LAYOUT
  5
22
102
{ACAD_REACTORS
330
1A
102
}
330
1A
100
AcDbPlotSettings
  1

  2
\\wqt02622\HP
  4
A3
  6

 40
6.043083190917968
 41
13.4937515258789
 42
6.043060302734375
 43
3.67242431640625
 44
297.0106506347656
 45
419.9466552734374
 46
0.0
 47
18.9
 48
342.9982384351934
 49
257.982353549457
140
9114.851250497251
141
7105.863673247583
142
1.0
143
24.03402005818547
 70
 11956
 72
     1
 73
     1
 74
     4
  7
monochrome.ctb
 75
     0
147
0.0416076876685231
 76
     0
 77
     2
 78
   150
148
-342.9982384351934
149
-257.982353549457
100
AcDbLayout
  1
Model
 70
     1
 71
     0
 10
0.0
 20
0.0
 11
12.0
 21
9.0
 12
0.0
 22
0.0
 32
0.0
 14
0.0
 24
0.0
 34
0.0
 15
0.0
 25
0.0
 35
0.0
146
0.0
 13
0.0
 23
0.0
 33
0.0
 16
1.0
 26
0.0
 36
0.0
 17
0.0
 27
1.0
 37
0.0
 76
     0
330
1F
  0
MLINESTYLE
  5
18
102
{ACAD_REACTORS
330
17
102
}
330
17
100
AcDbMlineStyle
  2
STANDARD
 70
     0
  3

 62
   256
 51
90.0
 52
90.0
 71
     2
 49
0.5
 62
   256
  6
BYLAYER
 49
-0.5
 62
   256
  6
BYLAYER
  0
PLOTSETTINGS
  5
D1
102
{ACAD_REACTORS
330
19
102
}
330
19
100
AcDbPlotSettings
  1
ISO A3 title block - no output device
  2
None
  4
ISO_A3_(297.00_x_420.00_MM)
  6

 40
7.549999999999999
 41
20.05
 42
7.549999999999999
 43
20.05
 44
297.0
 45
420.0
 46
-7.559999999999999
 47
-20.06
 48
0.0
 49
0.0
140
0.0
141
0.0
142
1.0
143
1.0
 70
   692
 72
     1
 73
     1
 74
     1
  7

 75
    16
147
1.0
 76
     0
 77
     2
 78
   300
148
0.0128164049386896
149
0.0090630292066862
  0
ACDBPLACEHOLDER
  5
F
102
{ACAD_REACTORS
330
E
102
}
330
E
  0
DICTIONARYVAR
  5
3B7
102
{ACAD_REACTORS
330
27B
102
}
330
27B
100
DictionaryVariables
280
     0
  1
2
  0
DICTIONARYVAR
  5
3B6
102
{ACAD_REACTORS
330
27B
102
}
330
27B
100
DictionaryVariables
280
     0
  1
1
  0
DICTIONARYVAR
  5
27C
102
{ACAD_REACTORS
330
27B
102
}
330
27B
100
DictionaryVariables
280
     0
  1
96
  0
ENDSEC
  0
EOF
